Oops, an error
Loading. Please wait.
We have an official Sleep Through The Static tab made by UG professional guitarists. Check out the tab »
×
27,852 views 1 this week
2 commentsread comments
1 2 3 4 5
x 9
add to favorites
×
Save as Personal and add changes to this tab that will be seen only by you. Learn more ›
×
You can save this tab as Personal to edit and correct it or add notes. All changes will be seen only by you. Learn more »
launch autoscroll
font size
0
reset
how to read this tab
guitar tuner
edit
Autoscroll
slow
fast
+/-
esc
set tempo
stop
----------------------------------------------------------------------------
              Sleep Through the Static - Jack Johnson
----------------------------------------------------------------------------
Tabbed by: _musicupthebutt
Email: chazzruiz@comcast.net

	Hi all. This is my first tab I have ever written, and I wanted to make it a good one. I 
guarantee you that this tab is 1000% correct, so use it to your pleasure. Enjoy!

	Chords Used
      C  G/B   Am   G    F    Em
e|----0----X----0----3----1----0----|
B|----1----3----1----0----1----0----|
G|----0----0----2----0----2----0----|
D|----2----0----2----0----3----2----|
A|----3----2----0----2----3----2----|
E|----X----X----X----3----1----0----|

Please rate!

Tuning: Standard EADGBe

		Verse
    c                    Am
“Trouble travels fast…
e||---------8------------8-----------5-----------5--|
B||o--------8------------8-----------5-----------5--|
G||---------9------------9-----------5-----------5--|
D||-------------------------------------------------|
A||o------------------------------------------------|
E||------8-------0-8--8------0-0--5------0-5--5-----|
   Em                          F
e|--------7------------7-----------1-----------1--|
B|--------8------------8-----------1-----------1--|
G|--------9------------9-----------2-----------2--|
D|------------------------------------------------|
A|-0-0-7--------0-7--7------7-0-------------------|
E|------------------------------1------0-1-0-1----|
   C                        Am
e|---------8-----------8----------5----------5--|
B|---------8-----------8----------5----------5--|
G|---------9-----------9----------5----------5--|
D|----------------------------------------------|
A|---0------------------------------------------|
E|-3----8------0-8-0-8------0-0-5-----0-5--5----|

1.______________(play this 1st time around)______________________________
    Em                           F
                          …Somebody who’s pretending to care…
e|---------7-----------7----------1------------1/10-------||
B|---------8-----------8----------1----------------------o||
G|---------9-----------9----------2-----------------------||
D|--------------------------------------------------------||
A|---0-0-7------0-7--7------7-0---------------------0-0--o||
E|------------------------------1-----0-1-0-1-------------||

2._______________(Play this 2nd time around)__________

   Em                        F       G
  …Or you can sleep through the static”
e|-----7------------7-----------1---1/3--3--|
B|-----8------------8-----------1---1/3--3--|
G|-----9------------9-----------2---2/4--4--|
D|------------------------------3---3/5--5--|
A|--7-------0-7--7-------7------------------|
E|-------------------------0-1--------------|

Chorus
     C          G/B         Am
But who needs sleep when we’ve got love?
 F        G          C
Who needs keys when we’ve got clubs?
 C        G/B         Am
Who needs please when we’ve got guns?
 F         G         C
Who needs peace when we’ve gone above,
 C     G/B                      Am
but beyond where we should have gone?
         F       G                   C
We went beyond where we should have gone.

		Repeat Verse
		Repeat Chorus

Outro/Guitar Solo
e|--------------------------------------8---8--8-----8----10|
B|---------------------------------------------8h10--8----10|
G|-7b9-----------5b7r5-5b7r5----10b12-------------------9---|
D|----------------------------------------------------------|
A|----------------------------------------------------------|
E|----------------------------------------------------------|

e|-------10-10------10-10------10-10------10\5-|
B|-------10-10------10-10------10-10------10\5-|
G|--12b14------12b14------12b14------12b14-----|
D|---------------------------------------------|
A|---------------------------------------------|
E|---------------------------------------------|

e|--------5--5\3----------------------8----8----8-8-----10-10|
B|--------5--5\3----------------------8h10-8h10-8-8-----10-10|
G|-7b9-----------5b7r5-5b7r5----10b12-----------------9------|
D|-----------------------------------------------------------|
A|-----------------------------------------------------------|
E|-----------------------------------------------------------|

e|------10-10------10-10------10-10------10\5-----------------|
B|------10-10------10-10------10-10------10\5-----------------|
G|-12b14------12b14------12b14------12b14------7b9------------|
D|------------------------------------------------------------|
A|------------------------------------------------------------|
E|------------------------------------------------------------|
	And that’s it. If you have any questions/comments/concerns or want to correct any 
I may have made, contact me at my email or leave a memo on my profile.

| r  return from bend
| b  bend
| /  slide up
| \  slide down
| h  hammer-on
| p  pull-off
| ~  vibrato
| +  harmonic
| x  Mute note
============================================================================

            
            
Suggest correction
Creating personal tab
Creating personal tab
You can edit any tab online and save it as your Personal.

You can edit, replace or remove any tab part or add personal notes – all changes will be seen only by you.

Personal tabs can be accessed anytime from any device, even offline.
Learn more »
comments
print report bad tab
2 comments total.
0 reply
representin GC 108 May 28, 2012 01:12 AM

Great job man. Everything perfect so far (i havnt bothered with the outro yet, dont feel the need without something to keep the beat going) 5 stars

0 reply
haysoos 10 Mar 17, 2016 05:16 PM

is this the version he played at paris? using bar chords? or no...

guest
You may want to rate the tab now too:
select rating
Wanna post a correction for this tab? Suggest correction