Oops, an error
Loading. Please wait.

What You Thought You Need intro tab

version 1
version 1

Intro

Whole song

11,723 views 1 this week
2 commentsread comments
1 2 3 4 5
2 more votes to show rating
add to favorites
×
Save as Personal and add changes to this tab that will be seen only by you. Learn more ›
×
You can save this tab as Personal to edit and correct it or add notes. All changes will be seen only by you. Learn more »
launch autoscroll
font size
0
reset
how to read this tab
guitar tuner
edit
Autoscroll
slow
fast
+/-
esc
set tempo
stop
Author
Difficulty
WOO you clicked my tab! :D lol, dont expect it to be right because i'm sure i have 
a bit of it some were, so this is basically just outlines if any one else can better it for me


 Jack Johnson - What You Thought You need


 tuning: Standard


 intro

 e|---8----------|
 B|-----10---8---|
 G|--------9-----|
 D|--------------|
 A|--------------|
 E|--------------|


 e|------------------------|
 B|------------------------| x2
 G|-----------2------------|
 D|----2/5--2---3-5-2-3-2--|
 A|--3---------------------|
 E|------------------------|


 e|------------------------------|
 B|--------------4---4-----------|
 G|------------5---5--5----------|
 D|----2---0--------------2---0--|
 A|--3---3--------------3---3----|
 E|------------------------------|

 

 e|-----------------------------------|
 B|-------------------6-----6---------|
 G|----4-4-5-7------7-----7------2---2|
 D|--5------------7-----7------3---3--|
 A|-----------------------------------|
 E|-----------------------------------|


 e|-----------------------------------|
 B|--------------6-----6----6---------|
 G|-------------7-----7----7-----2---2|
 D|---2--2-----7-----7----7-----3---3-|
 A|-3--3------------------------------|
 E|-----------------------------------|

            
            
Suggest correction
Creating personal tab
Creating personal tab
You can edit any tab online and save it as your Personal.

You can edit, replace or remove any tab part or add personal notes – all changes will be seen only by you.

Personal tabs can be accessed anytime from any device, even offline.
Learn more »
Give kudos to tab author, rate the tab!
1 2 3 4 5
comments
print report bad tab
2 comments total.
+1 reply
adamy0o 110 Apr 04, 2008 12:47 PM

the very beginning notes are:

e--------5/0------3------|
B------------------------|
G------5-----------------|
D------------------------|
A------------------------|
E------------------------|

and occasionally, you can bar the third fret with a C bar chord, and tap on the B string from fret 3 to 5. it gives the sound that jack does.

-1 reply
jdawg0492 10 Jun 06, 2010 04:15 PM

This is wrong. I learned the beginning about a year ago and realized it's a completely different tuning, not standard. That's why he doesn't play the intro in any live version.

guest
You may want to rate the tab now too:
select rating
Wanna post a correction for this tab? Suggest correction