Oops, an error
Loading. Please wait.
We have an official Sixteen Saltines tab made by UG professional guitarists. Check out the tab »
×
105,820 views 99 this week
3 commentsread comments
1 2 3 4 5
x 41
add to favorites
×
Save as Personal and add changes to this tab that will be seen only by you. Learn more ›
×
You can save this tab as Personal to edit and correct it or add notes. All changes will be seen only by you. Learn more »
launch autoscroll
font size
0
reset
how to read this tab
guitar tuner
edit
Autoscroll
slow
fast
+/-
esc
set tempo
stop
Hey guys and gals! so this is my very VERY first tab, although I've been playing for a
few years now. Go easy on me, and if you have any contributions let me know! Also, I've
just been working off both the SNL and studio versions, but I haven't got the full solo 
yet (atleast not the end part of it anyway, that will come soon). But here ya go, super fun
to jam along to. Cheers!


[Intro/Verses]

e|----------------------|
B|----------------------|
G|------------2-2--4-4--|
D|-2-2--5-5---2-2--4-4--|
A|-2-2--5-5---0-0--2-2--|
E|-0-0--3-3-------------|


[Chorus]

e|---------------------|
B|---------------------|
G|-5-----7-------------|
D|-5(x8)-7(x8)---------|
A|-3-----5-------------|
E|---------------------|


[Groovin' Part]

e|---------------------|
B|---------------------|
G|---------------------|
D|-----0---------0-2---|
A|-------0---0---------|
E|-0-3---------3-------|


[Pre-Solo/Solo] 

(Probably not the exact solo but still sounds good. Not sure of the exact
count but just play it however many times you'd like!)

e|--------------------------------------10-10-10--12/9------------|
B|----------------8-8-8--10-10/12-12-12---------------------------|
G|---------9-9-9--------------------------------------------------|
D|-9--------------------------------------------------------------|
A|-7(x8)----------------------------------------------------------|
E|-7--------------------------------------------------------------|


Guitar in the background before the end (played slower than earlier on)

e|---------------------|
B|---------------------|
G|-5-------7-----------|
D|-5(x16)--7(x17)------|
A|-3-------5-----------|
E|---------------------|


Little end, little end

e|----------|
B|----------|
G|----------|
D|-2-2--5-5-|
A|-2-2--5-5-|
E|-0-0--3-3-|


And now for the order!

Intro/Verses riff (x5)
Chorus riff
Intro/Verses riff (x3)
Chorus riff
Groove part (x5)
Chorus riff
Intro/Verses riff (x5)
Chorus riff
Intro/Verses riff (x3)
Chorus riff
Groove part (x5)
Chorus riff
Pre-solo/Solo
Background end solo riff (or you could just improvise some solo stuff)
Little end, little end

Thanks for jamming!

            
            
Suggest correction
Creating personal tab
Creating personal tab
You can edit any tab online and save it as your Personal.

You can edit, replace or remove any tab part or add personal notes – all changes will be seen only by you.

Personal tabs can be accessed anytime from any device, even offline.
Learn more »
comments
print report bad tab
3 comments total.
+3 reply
albooga 10 Jan 05, 2014 06:30 AM, edited at 11:42 am

According to RockSmith, the chords for the verses are E5, G (only fret the 3rd fret on the low E on, mute second string and strum the top 5 strings), A and B/F# (B maj played on the second string). For chorus/break, the chords are C and D played on the second string.
They seem to favor the slightly tougher chords over power chords. It does affect the sound, but I guess either way would sound fine.

0 reply
albooga 10 Oct 31, 2017 03:54 PM

Open E
G (only fret the 3rd fret on the low E on, mute second (A) string and strum all strings)
Open A
Barred A5 (first finger on 5th fret on both the E and A strings, third finger on 7th fret of D string and 4th finger on 7th fret of G string)

0 reply
ianobregon 10 Dec 04, 2015 01:31 PM

Great tab!!!!
Do more of Jack!!!

guest
You may want to rate the tab now too:
select rating
Wanna post a correction for this tab? Suggest correction