Oops, an error
Loading. Please wait.
We have an official Sixteen Saltines tab made by UG professional guitarists. Check out the tab »
×
2,337 views 1 this week
1 commentread comment
1 2 3 4 5
x 4
add to favorites
×
Save as Personal and add changes to this tab that will be seen only by you. Learn more ›
×
You can save this tab as Personal to edit and correct it or add notes. All changes will be seen only by you. Learn more »
launch autoscroll
font size
0
reset
how to read this tab
guitar tuner
edit
Autoscroll
slow
fast
+/-
esc
set tempo
stop
Author
#----------------------------------PLEASE NOTE--------------------------------#
#This file is the author's own work and represents their interpretation of the#
#song. You may only use this file for private study, scholarship, or research.#
#-----------------------------------------------------------------------------#
#-- File created with Instab - http://www.pconline.com/~smcarey/instab.html --#
#-----------------------------------------------------------------------------#

Author/Artist: Jack White
Title: Sixteen Saltines

/ slide up
\ slide down


Tuning (eb A D G B E), Down ~ 10%, (eb, D) Down ~ 20%
Live Standard Tuning, Down ~ 10%
Key: (D + C#), Mode D



----|---------------------|--|---------|
----|-5-5-8-8---10101212--|--|-1---3---|
----|-4-4-7-7---9-9-1111--|--|-0---2---|
----|-2-2-5-5---7-7-9-9---|--|-2---4---|
----|-7-7-1010--12121414--|--|-----5---|
----|---------------------|--|---------|
  

  G1 Verse                    Chorus 




----|--------------------|--|
----|--------------------|--|
----|--------------------|--|
----|--------------------|--|
----|-7---5-----0---5-7--|--|
----|---4---6-----4------|--|
   

  G1 Interlude/Chorus




----|------------------------|
----|------------------------|
----|------------------------|
----|-14-14-14-14-14-14-14-14|
----|-14-14-14-14-14-14-14-14|
----|------------------------|
        m  m  m  m  m  m  m  m   

  G1 Bridge



----|------------------------------------------|--|
----|------------------------------------------|--|
----|-9-9-9-12-12-12-14-16-16-16-19-19-19-21\--|--|
----|------------------------------------------|--|
----|------------------------------------------|--|
----|------------------------------------------|--|
   

  G2 Bridge/Chorus/End  
                              

            
            
Suggest correction
Creating personal tab
Creating personal tab
You can edit any tab online and save it as your Personal.

You can edit, replace or remove any tab part or add personal notes – all changes will be seen only by you.

Personal tabs can be accessed anytime from any device, even offline.
Learn more »
comments
print report bad tab
1 comment total.
0 reply
zackbrooks05 10 Feb 27, 2016 02:07 PM

Notes provided are clearly wrong. This even if you try to play this you'll never be able to hit all the notes given at the same time

guest
You may want to rate the tab now too:
select rating
Wanna post a correction for this tab? Suggest correction