Oops, an error
Loading. Please wait.

Honey I Been Thinkin About You tab

16,233 views 15 this week
2 commentsread comments
1 2 3 4 5
x 14
add to favorites
×
Save as Personal and add changes to this tab that will be seen only by you. Learn more ›
×
You can save this tab as Personal to edit and correct it or add notes. All changes will be seen only by you. Learn more »
launch autoscroll
font size
0
reset
how to read this tab
guitar tuner
edit
Autoscroll
slow
fast
+/-
esc
set tempo
stop
Author
G                                                       D
E|---3---------------2-------------------0-----------------------------------|
A|------x---x---x---------x---x---x----------x---x---x-----------------------|
C|------x---x---x---------x---x---x----------x---x---x-------0---------------|
G|------0---0---0---------0---0---0----------0---0---0------------2---2---2--|
B|------3---3---3---------3---3---3----------3---3---3------------3---3---3--|
e|------3---3---3---------3---3---3----------3---3---3------------2---2---2--|
        /\  \/  /\        /\  \/  /\         /\  \/  /\           /\  \/  /\

       Well i aint interested in the clothes that you wear
     C                                                       D
E|-------------------------------------------------------------------------------|
A|----3----------------2------------------0--------------------------------------|
C|-------x---x---x---------x---x---x----------x---x---x-------0------------------|
G|-------0---0---0---------0---0---0----------0---0---0------------2---2---2-----|
B|-------2---2---2---------3---3---3----------3---3---3------------3---3---3-----|
e|-------0---0---0---------3---3---3----------3---3---3------------2---2---2-----|
        /\  \/  /\        /\  \/  /\         /\  \/  /\           /\  \/  /\

      In the car that you drive or the cut of your hair
 G                                                    D
E|-3---------------2-------------------0--------------------------------------|
A|----x---x---x---------x---x---x----------x---x---x--------------------------|
C|----x---x---x---------x---x---x----------x---x---x-------0------------------|
G|----0---0---0---------0---0---0----------0---0---0------------2---2---2-----|
B|----3---3---3---------3---3---3----------3---3---3------------3---3---3-----|
e|----3---3---3---------3---3---3----------3---3---3------------2---2---2-----|
     /\  \/  /\        /\  \/  /\         /\  \/  /\           /\  \/  /\

      Honey, you got something that i can't compare
 C                 D                  G
E|--------------------------------------3-------------------------------------|
A|-3--------------------------------------------------------------------------|
C|-----x---x---x-----0----------------------x---x---x-------0-----------------|
G|-----0---0---0---------2---2---2----------0---0---0-----------0---0---0-----|
B|-----2---2---2---------3---3---3----------3---3---3-----------3---3---3-----|
e|-----0---0---0---------2---2---2----------3---3---3-----------3---3---3-----|
     /\  \/  /\        /\  \/  /\         /\  \/  /\           /\  \/  /\

          And i've been thinking about you
[Bridge]
Am                                   Bm
E|------------------------------------------2---2---2-----------2---2---2-----|
A|-0-----------------------------------2----2---2---2-----------2---2---2-----|
C|-----2---2---2-----2---2---2---2----------4---4---4-------4---4---4---4-----|
G|-----2---2---2---------2---2---2----------4---4---4-----------4---4---4-----|
B|-----1---1---1---------1---1---1----------3---3---3-----------3---3---3-----|
e|-----0---0---0---------0---0---0----------2---2---2-----------2---2---2-----|
    /\  \/  /\        /\  \/  /\         /\  \/  /\           /\  \/  /\

           Love is for fools, yes a fool such as i
 C                                    D
E|----------------------------------------------------------------------------|
A|-3--------------------------------------------------------------------------|
C|-----x---x---x-----2------------------0---x---x---x-------------------------|
G|-----0---0---0---------0---0---0----------2---2---2------2----2---2---2-----|
B|-----2---2---2---------2---2---2----------3---3---3-----------3---3---3-----|
e|-----0---0---0---------0---0---0----------2---2---2-----------2---2---2-----|
    /\  \/  /\        /\  \/  /\         /\  \/  /\           /\  \/  /\

         And i can't tell you how and i can't tell you why
Am                                   Bm
E|------------------------------------------2---2---2-----------2---2---2-----|
A|-0-----------------------------------2----2---2---2-----------2---2---2-----|
C|-----2---2---2-----2---2---2---2----------4---4---4-------4---4---4---4-----|
G|-----2---2---2---------2---2---2----------4---4---4-----------4---4---4-----|
B|-----1---1---1---------1---1---1----------3---3---3-----------3---3---3-----|
e|-----0---0---0---------0---0---0----------2---2---2-----------2---2---2-----|
    /\  \/  /\        /\  \/  /\         /\  \/  /\           /\  \/  /\

           Ah but honey i just can't deny you....
  D
E|----------------------------------------------------------------------------|
A|----------------------------------------------------------------------------|
C|--0---x---x---x-------------------------------------------------------------|
G|------2---2---2------2----2---2---2-----------------------------------------|
B|------3---3---3-----------3---3---3-----------------------------------------|
E|------2---2---2-----------2---2---2-----------------------------------------|
       /\  \/  /\        /\  \/  /\


************************************

| x  Dead note

************************************

            
            
Suggest correction
Creating personal tab
Creating personal tab
You can edit any tab online and save it as your Personal.

You can edit, replace or remove any tab part or add personal notes – all changes will be seen only by you.

Personal tabs can be accessed anytime from any device, even offline.
Learn more »
comments
print report bad tab
2 comments total.
0 reply
swaino714 69 Mar 21, 2010 10:17 AM

this is a good tab but the bar chords are up side down and all it is, is a walk down from G to D.

0 reply
rckclmbr512d 10 Mar 23, 2017 02:26 PM

Capo 1st fret.

guest
You may want to rate the tab now too:
select rating
Wanna post a correction for this tab? Suggest correction