Oops, an error
Loading. Please wait.

Berga bass

28 views 1 this week
no commentswrite comment
1 2 3 4 5
3 more votes to show rating
add to favorites
×
Save as Personal and add changes to this tab that will be seen only by you. Learn more ›
×
You can save this tab as Personal to edit and correct it or add notes. All changes will be seen only by you. Learn more »
launch autoscroll
font size
0
reset
guitar tuner
edit
Autoscroll
slow
fast
+/-
esc
set tempo
stop
130 BPM
 [Intro]                                                            
G|--------------------------------|--------------------------------|
D|--------------------------------|--------------------------------|
A|--------------------------------|--------------------------------|
E|3-------------------------------|--------------------------------|
 
                                                                    
G|--------------------------------|--------------------------------|
D|--------------------------------|--------------------------------|
A|--------------------------------|------------4-----4-----4-------|
E|3-------------------------------|----------------------------2---|
 
                                                                    
G|--------------------------------|--------------------------------|
D|--------------------------------|--------------------------------|
A|--------------------------------|--------------------------------|
E|3-------------------------------|--------2-------3---------------|
 
                                                                    
G|--------------------------------|--------------------------------|
D|--------------------------------|--------------------------------|
A|--------------------------------|--------------------------------|
E|----3-----------3-------------3-|3-----3-2---2-2-2-----2-0-----0-|
 
 [A]                                                                
G|------------------------2-------|0-------7-------5---------------|
D|2-------1-------0---------------|------------------------1-------|
A|--------------------------------|--------------------------------|
E|--------------------------------|--------------------------------|
 
                                                                    
G|------------------------2-------|0-------0-------5---------------|
D|2-------1-------0---------------|------------------------0-0-0-1-|
A|--------------------------------|--------------------------------|
E|--------------------------------|--------------------------------|
 
                                                                    
G|------------------------2-----2-|0-------------------------------|
D|2-2-----1-------0---------------|----------------0-----0-0-0-0-1-|
A|--------------------------------|--------------------------------|
E|--------------------------------|--------------------------------|
 
                                                                    
G|------------------------1-------|0-------------------------------|
D|2-------1-------0---------------|--------2-----2-----------------|
A|--------------------------------|----------------4-------3-------|
E|--------------------------------|--------------------------------|
 
 [B]                                                                
G|0-----0-----0-0-----------------|------0-------------------------|
D|--------------------------------|--------------------------------|
A|--------------------------------|--------------------------------|
E|--------3-3-------3-3-3-3-3-----|3-----------3-3---3-3-3-3-3-3-3-|
 
                                                                    
G|0-------------------------------|0-------------------------------|
D|--------------------------------|--------------------------------|
A|--------------------------------|--------------------------------|
E|--------3-3-3-3---3-3-3-3-3-3---|--------3---3-------------------|
 
 [A2]                                                               
G|----4---3-----------2-----------|--------------------------------|
D|2-----------3---0-------0-------|------------------------0-0-1-2-|
A|--------------------------------|----------------3-3-4-4---------|
E|--------------------------------|--------4-4---------------------|
 
                                                                    
G|------------------------2-------|0-------------------------------|
D|2-------1-------0---------------|------------------------3-------|
A|--------------------------------|------------2---3---------------|
E|--------------------------------|--------------------------------|
 
                                                                    
G|------------------------2-------|0-----------------------5-------|
D|2-------1-------0---------------|--------------------------------|
A|--------------------------------|----------------3---------------|
E|--------------------------------|--------3-----------------------|
 
                                                                    
G|------------------------2-------|0-------0-------5---------------|
D|2-------1-------0---------------|--------------------------------|
A|--------------------------------|------------------------3-------|
E|--------------------------------|--------------------------------|
 
 [B2]                                                               
G|0-------------0-0-0-0-0---------|0-------------0-------0---------|
D|--------------------------------|--------------------------------|
A|--------------------------------|--------------------------------|
E|------3-----------------3-3-3-3-|------3---3-3-----3-------------|
 
                                                                    
G|--------------------0-----------|0-------------------------------|
D|--------------------------------|--------------------------------|
A|--------------------------------|--------------------------------|
E|3-----3-3-3-3-3-----------------|------3-3-3-3-3---3-------------|
 
 [A Solo]                                                           
G|------------------------2-------|0-------7-------5---------------|
D|2-------1-------0---------------|------------------------1-------|
A|--------------------------------|--------------------------------|
E|--------------------------------|--------------------------------|
 
                                                                    
G|------------------------2-------|0-------7-------5---------------|
D|2-------1-------0---------------|--------------------------0-1-1-|
A|--------------------------------|--------------------------------|
E|--------------------------------|--------------------------------|
 
                                                                    
G|------------------------2-------|0-------7-------5---------------|
D|2-2-----1-------0---------------|----------------------------0-1-|
A|--------------------------------|--------------------------------|
E|--------------------------------|--------------------------------|
 
                                                                    
G|------------------------2-------|0-------0-----5-----5---5-5-----|
D|2-------1-------0---------------|--------------------------------|
A|--------------------------------|--------------------------------|
E|--------------------------------|--------------------------------|
 
 [C]                                                                
G|0---------------0---------------|--------0-----------------------|
D|--------------------------------|--------------------------------|
A|--------------------------------|--------------------------------|
E|--------3---------------3---3---|3---------------3-------3-3-3-3-|
 
                                                                    
G|--------0-----------------------|0-------------------------------|
D|--------------------------------|----------------------------2-2-|
A|--------------------------------|--------------------------------|
E|3---------------3-------3-------|--------3-----------------------|
 
 [A3]                                                               
G|------------------------2-------|0-------7-------5---------------|
D|2-------1-------0---------------|------------------------0-0-0-1-|
A|--------------------------------|--------------------------------|
E|--------------------------------|--------------------------------|
 
                                                                    
G|------------------------2-------|0-------7-------5---------------|
D|2-------1-------0---------------|------------------------3-------|
A|--------------------------------|--------------------------------|
E|--------------------------------|--------------------------------|
 
                                                                    
G|------------------------2-------|0-------7-------5---------------|
D|2-------1-----------------------|--------------------------0-0-1-|
A|--------------------------------|--------------------------------|
E|--------------------------------|--------------------------------|
 
                                                                    
G|------------------------2-------|0-------0-------4-5---5-5-5-----|
D|2-------1-------0---------------|----------------------------2-3-|
A|--------------------------------|--------------------------------|
E|--------------------------------|--------------------------------|
 
 [B3]                                                               
G|0-----------------0-0-0-0-------|----------------0-0-0-0---------|
D|--------------------------------|--------------------------------|
A|--------------------------------|--------------------------------|
E|------3-----3---3---------------|3-----3-------3-----------------|
 
                                                                    
G|--------------0---0-0-0-0-0-0---|--------------------------------|
D|--------------------------------|--------------------------------|
A|--------------------------------|--------------------------------|
E|3-----3-------------------------|3-----3-------3---3-3-3---------|
 
 [D]                                                               
G|--------------------------------|----2---0---7---7-------0-------|
D|------------------------2---1---|0-----------------0---0-----0---|
A|0-------------------------------|--------------------------------|
E|--------------------------------|--------------------------------|
 
                                                                    
G|------------------------2---1---|--------------------------------|
D|2---2---1---1---0---0-----------|0-------0---0-------------------|
A|--------------------------------|--2---2---------2---------------|
E|--------------------------------|--------------------0-0-2-2-1-1-|
 
 [E]                                                                
G|--------------------------------|--------------------------------|
D|--------------------------------|----------------------------0---|
A|1-2-3-3-2---1-1-0---------------|----------------0---2---3-------|
E|--------------------3---2---1---|0---2---3---4-------------------|
 
                                                                    
G|--------------------------------|0-----------0-7-8-7-5-------0-0-|
D|2---2---1-----1-0-------0---0---|--0-0-0-1-1-----------0-1-2-----|
A|--------------------------------|--------------------------------|
E|--------------------------------|--------------------------------|
 
 [C2]                                                               
G|----------------0---------------|------------0-------------------|
D|--------------------------------|--------------------------------|
A|--------------------------------|--------------------------------|
E|3-----3---------------------3---|3-----3-------------------------|
 
                                                                    
G|--------------0-----------------|----------------------------0---|
D|--------------------------------|--------------------------------|
A|--------------------------------|--------------------------------|
E|3-------------------3-----------|--------------------------------|
 
 [E2]                                                               
G|0---------------9-4-------------|0-------------------------------|
D|----2---3-----------------------|--------------------------------|
A|--------------------------------|------------4---3-----3-------3-|
E|--------------------------------|------3-------------------------|
 
                                                                    
G|------------------------2-------|0-----7---7---5-----------------|
D|----2-2-2-1---1-0---------------|------------------------0---1---|
A|3-4-----------------------------|--------------------------------|
E|--------------------------------|--------------------------------|
 
                                                                    
G|------------------------2-------|0-----0---7-7-6-5---------------|
D|2-2---2-1-------0---------------|----------------------0-0---1---|
A|--------------------------------|--------------------------------|
E|--------------------------------|--------------------------------|
 
                                                                    
G|------------------------2-2---1-|0-0---0---0---0-5-5-5-----------|
D|2-----2-1-1---1-0-0---0---------|--------------------------------|
A|--------------------------------|----------------------3---3-----|
E|--------------------------------|--------------------------------|
 
 [Re-Intro]                                                         
G|--------------------------------|--------------------------------|
D|--------------------------------|--------------------------------|
A|--------------------------------|--------------------------------|
E|3-------------------------------|--------------------------------|
 
                                                                    
G|--------------------------------|--------------------------------|
D|--------------------------------|--------------------------------|
A|--------------------------------|--------------------------------|
E|3-------------------------------|--------------------------------|
 
 [Solo Bass]                                                        
G|21------------------------------|--------------------------------|
D|--------------------------------|--------------------------------|
A|--------------------------------|--------------------------------|
E|--------------------------------|--------------------------------|
 
                                                                    
G|------------21----------19--17--|--------------------------------|
D|--------------------------------|--------------------------------|
A|--------------------------------|--------------------------------|
E|--------------------------------|--------------------------------|
 
                                                                    
G|--------------------------------|--------------------------------|
D|--------------------------------|--------------------------------|
A|--------------------------------|--------------------------------|
E|--------------------------------|--------------------------------|
 
                                                                    
G|--------------------------------|-------------9-12-12-9-12--14-12|
D|--------------------------------|--------------------------------|
A|--------------------------------|--------------------------------|
E|--------------------------------|--------------------------------|
 
                                                                    
G|----14--------------------------|17-17-17-14-14--14-12-12--12-9-9|
D|--------------------------------|--------------------------------|
A|--------------------------------|--------------------------------|
E|--------------------------------|--------------------------------|
 
                                                                    
G|--------------------------------|--------------------------------|
D|--------------------------------|--------------------------------|
A|--------------------------------|--------------------------------|
E|--------------------------------|--------------------------------|
 
                                                                    
G|9-9-7-9-12-14-18-17-15-14-19-7-8|9-------------------------------|
D|--------------------------------|--------------------------------|
A|--------------------------------|--------------------------------|
E|--------------------------------|--------------------------------|
 
                                                                    
G|14-12-14-12-13-11-13-9-11-------|--------------------------9-12--|
D|--------------------------------|--------------------------------|
A|--------------------------------|--------------------------------|
E|--------------------------------|--------------------------------|
 
                                                                    
G|----11--7-5-1---0---------------|------------------------2---5---|
D|--------------4-----------------|--------3---2-2-3-3-4-----------|
A|--------------------------------|--------------------------------|
E|--------------------------------|--------------------------------|
 
                                                                    
G|--------9-9-----8-8-----7-7-----|--------------------------------|
D|--------------------------------|--------------------------------|
A|--------------------------------|--------------------------------|
E|--------------------------------|--------------------------------|
 
                                                                    
G|5---------------------5-----5---|4-------------------------2-1---|
D|--------------------------------|--------------------------------|
A|--------------------------------|--------------------------------|
E|--------------------------------|--------------------------------|
 
                                                                    
G|2---------------------------2-3-|4-4-------2-4---5---------4-5---|
D|--------------------------------|--------------------------------|
A|--------------------------------|--------------------------------|
E|--------------------------------|--------------------------------|
 
                                                                    
G|7-------------------------------|--------------------------------|
D|--------------------------------|--------------------------------|
A|--------------------------------|--------------------------------|
E|--------------------------------|--------------------------------|
 
                                                                    
G|--------------------------------|--------------------------------|
D|--------------------------------|--------------------------------|
A|--------------------------------|--------------------------------|
E|--------------------------------|--------------------------------|
 
                                                                    
G|--------------------------------|----12-12--12--12--12--12--12---|
D|--------------------------------|--------------------------------|
A|--------------------------------|----10-10--10--10--10--10--10---|
E|--------------------------------|--------------------------------|
 
                                                                    
G|--------------------------------|--------------------------------|
D|--------------------------------|--------------------------------|
A|--------------------------------|--------------------------------|
E|--------------------------------|--------------------------------|
 
 [B4]                                                               
G|0-------------------------------|0-------------------------------|
D|--------------------------------|--------------------------------|
A|--------------------------------|--------------------------------|
E|--------3-3---3-----------------|--------3-----------3-3---------|
 
                                                                    
G|0-------------------------------|0-------------------------------|
D|--------------------------------|--------------------------------|
A|--------------------------------|--------------------------------|
E|--------3-3---3---3-3-----------|--------------------------------|
 
 [A4]                                                               
G|------------------------2-------|0-------7-------5---------------|
D|2-------1-------0---------------|------------------------1-------|
A|--------------------------------|--------------------------------|
E|--------------------------------|--------------------------------|
 
                                                                    
G|------------------------2-------|0-------7-------5---------------|
D|2-------1-------0---------------|----------------------------0-1-|
A|--------------------------------|--------------------------------|
E|--------------------------------|--------------------------------|
 
                                                                    
G|------------------------2-------|0-------7-------5---------------|
D|2-2-----1-------0---------------|------------------------1-------|
A|--------------------------------|--------------------------------|
E|--------------------------------|--------------------------------|
 
                                                                    
G|------------------------2-------|0-------0-------5---------------|
D|2-------1-------0---------------|--------------------------------|
A|--------------------------------|------------------------3-3-----|
E|--------------------------------|--------------------------------|
 
 [B Outro]                                                          
G|------------0-------------------|------------0-------------------|
D|--------------------------------|--------------------------------|
A|--------------------------------|--------------------------------|
E|3-----3---------------------3-3-|3-------------------------------|
 
                                                                    
G|------------0-------------------|--------------------------------|
D|--------------------------------|------------------------------0-|
A|--------------------------------|--------------------------------|
E|3-------------------------------|------------3-3-----3-----------|
 
                                                                    
G|------------------------0-------|------------9-------------------|
D|2-2-2-2-0-0-0-0-3-3-3-3---3-----|2-------------------------------|
A|--------------------------------|--------------0-----------------|
E|--------------------------------|--------------------------------|

            
            
Suggest correction
Creating personal tab
Creating personal tab
You can edit any tab online and save it as your Personal.

You can edit, replace or remove any tab part or add personal notes – all changes will be seen only by you.

Personal tabs can be accessed anytime from any device, even offline.
Learn more »
Give kudos to tab author, rate the tab!
1 2 3 4 5
comments
print report bad tab
guest
You may want to rate the tab now too:
select rating
Wanna post a correction for this tab? Suggest correction