Oops, an error
Loading. Please wait.

Can Can tab

version 2
version 2

Whole song

Interactive

3,637 views 6 this week
no commentswrite comment
1 2 3 4 5
2 more votes to show rating
add to favorites
×
Save as Personal and add changes to this tab that will be seen only by you. Learn more ›
×
You can save this tab as Personal to edit and correct it or add notes. All changes will be seen only by you. Learn more »
launch autoscroll
font size
0
reset
how to read this tab
guitar tuner
edit
Autoscroll
slow
fast
+/-
esc
set tempo
stop
Author
Title: Can Can
Artist: Jacques Offenback
Author: Jacques offenback

I converted this all over from piano music in about an hour. I'm 100% sure all the notes 
correct, but I'm also sure there are easier ways to play it if you spread it out across 
strings. It gets inconvenient at places  like measure 5. Anyways this is my first tab, enjoy
  1                      2                    3                     4
E|---------------------|---------------------|---------------------|-----------------|
B|---------------------|---------------------|---------------------|-----------------|
G|-0----7----7----9----|-7----5----5----9----|-10---14---17---14---|-14---12---12----|
D|---------------------|---------------------|---------------------|-----------------|
A|---------------------|---------------------|---------------------|-----------------|
E|---------------------|---------------------|---------------------|-----------------|

  5                     6                     7                      8
E|---------------------|---------------------|---------------------|---------------------|
B|---------------------|---------------------|---------------------|---------------------|
G|-12---12---4----14---|-12---5----5----9----|-9----7----9----7----|-9----7----9----7----|
D|---------------------|---------------------|---------------------|---------------------|
A|---------------------|---------------------|---------------------|---------------------|
E|---------------------|---------------------|---------------------|---------------------|

  9                     10                     11                    12
E|---------------------|---------------------|---------------------|-----------------|
B|---------------------|---------------------|---------------------|-----------------|
G|-0----7----7----9----|-7----5----5----9----|-10---14---17---14---|-14---12---12----|
D|---------------------|---------------------|---------------------|-----------------|
A|---------------------|---------------------|---------------------|-----------------|
E|---------------------|---------------------|---------------------|-----------------|

  13                     14                   15                16
E|---------------------|---------------------|-----------------|-------------|-------------|
B|---------------------|---------------------|-----------------|-------------|-------------|
G|-12---12---4----14---|-9----7----9----7----|-7----5----5-----|-9-----5-----|-2-----0-----|
D|---------------------|---------------------|-----------------|-------------|-------------|
A|---------------------|---------------------|-----------------|-------------|-------------|
E|---------------------|---------------------|-----------------|-------------|-------------|

  17                    18                19             20           21
E|---------------------|-----------------|-------------|-------------|---------------------|
B|---------------------|-----------------|-------------|-------------|---------------------|
G|-12---7----9----10---|-9----7----5-----|-9-----5-----|-2-----0-----|------0----2----4----|
D|---------------------|-----------------|-------------|-------------|-4-------------------|
A|---------------------|-----------------|-------------|-------------|---------------------|
E|---------------------|-----------------|-------------|-------------|---------------------|

   22                 23          24            25                    26
E|-----------------|-------------|-------------|---------------------|-----------------|
B|-----------------|-------------|-------------|---------------------|-----------------|
G|-7----5----5-----|-9-----5-----|-2-----0-----|-12---7----9----10---|-9----7----5-----|
D|-----------------|-------------|-------------|---------------------|-----------------|
A|-----------------|-------------|-------------|---------------------|-----------------|
E|-----------------|-------------|-------------|---------------------|-----------------|

   27           28            29                    30                    31
E|-------------|-------------|---------------------|---------------------|---------------------|
B|-------------|-------------|---------------------|---------------------|---------------------|
G|-9-----5-----|-2-----0-----|------0----2----4----|-5----0----5----0----|-5----0----5----0----|
D|-------------|-------------|-4-------------------|---------------------|---------------------|
A|-------------|-------------|---------------------|---------------------|---------------------|
E|-------------|-------------|---------------------|---------------------|---------------------|

  32                    33                     34      35
E|---------------------|---------------------|--------|---------------------|-------------|
B|---------------------|---------------------|--------|---------------------|-------------|
G|-5----5----5----5----|-5----5----5----5----|--------|-0----4----2----0----|-5-----5-----|
D|---------------------|---------------------|-3------|---------------------|-------------|
A|---------------------|---------------------|--------|---------------------|-------------|
E|---------------------|---------------------|--------|---------------------|-------------|

  36                    37            38                    39
E|---------------------|-------------|---------------------|---------------------|
B|---------------------|-------------|---------------------|---------------------|
G|-5----7----2----4----|-0-----0-----|-0----4----2----0----|------10---9----7----|
D|---------------------|-------------|---------------------|-3-------------------|
A|---------------------|-------------|---------------------|---------------------|
E|---------------------|-------------|---------------------|---------------------|

  40                     41     42                      43           44
E|---------------------|--------|---------------------|-------------|---------------------|
B|---------------------|--------|---------------------|-------------|---------------------|
G|-5----4----2----0----|--------|-0----4----2----0----|-5-----5-----|-5----7----2----4----|
D|---------------------|-3------|---------------------|-------------|---------------------|
A|---------------------|--------|---------------------|-------------|---------------------|
E|---------------------|--------|---------------------|-------------|---------------------|

  45            46                    47                48            49
E|-------------|---------------------|-----------------|-------------|---------------------|
B|-------------|---------------------|-----------------|-------------|---------------------|
G|-0-----0-----|-0----4----2----0----|-----------------|-0-----2-----|-5----4----9----7----|
D|-------------|---------------------|-3---------3-----|-------------|-3-------------------|
A|-------------|---------------------|-----------------|-------------|---------------------|
E|-------------|---------------------|-----------------|-------------|---------------------|

  50                    51                52            53                 54
E|---------------------|-----------------|-------------|---------------------|---------------------|
B|---------------------|-----------------|-------------|---------------------|---------------------|
G|-5----4----2----0----|-----------------|-0-----2-----|-5----4----9----7----|-5----4----2----0----|
D|---------------------|-3---------3-----|-------------|-3-------------------|---------------------|
A|---------------------|-----------------|-------------|---------------------|---------------------|
E|---------------------|-----------------|-------------|---------------------|---------------------|

  55                    56                    57
E|---------------------|---------------------|---------------------|
B|---------------------|---------------------|-----------6---------|
G|------5----0----2----|------5----0----2----|-----------5---------|
D|-3-------------------|-3-------------------|-3---------7---------|
A|---------------------|---------------------|---------------------|
E|---------------------|---------------------|---------------------|
Yes I know, all the measures after measure 16 are misnumbered I'm just too lazy to fix it.

            
            
Suggest correction
Creating personal tab
Creating personal tab
You can edit any tab online and save it as your Personal.

You can edit, replace or remove any tab part or add personal notes – all changes will be seen only by you.

Personal tabs can be accessed anytime from any device, even offline.
Learn more »
Give kudos to tab author, rate the tab!
1 2 3 4 5
comments
print report bad tab
guest
You may want to rate the tab now too:
select rating
Wanna post a correction for this tab? Suggest correction