Oops, an error
Loading. Please wait.

Let Her Go bass

413 views 6 this week
no commentswrite comment
1 2 3 4 5
3 more votes to show rating
add to favorites
×
Save as Personal and add changes to this tab that will be seen only by you. Learn more ›
×
You can save this tab as Personal to edit and correct it or add notes. All changes will be seen only by you. Learn more »
launch autoscroll
font size
0
reset
guitar tuner
edit
Autoscroll
slow
fast
+/-
esc
set tempo
stop
Author
----------------------------------------------------------------- 
LET HER GO - Jagwar Ma
-----------------------------------------------------------------  

Tuning:  EADG

I tabbed this off the Like A Version session but it's pretty accurate as far as I can tell from the
studio version?


G|---------------------------------------------------------------|
D|---------------------------------------------------------------|
A|------------------------------------------------------5--5--5--|
E|---------------------------------------------------------------|


G|---------------------------------------------------------------|
D|---------------------------------------------------------------|
A|7----7-------7--7---7--7-----5--5----------------------5-5-5---|
E|----------------------------------5----5--5---5--5-------------|

Verse:
G|-------------------------------------------------------|
D|-------------------------------------------------------|
A|7-----7---77---------5-----7------7---77-----------5---|
E|--------------5--7------7------------------5--7-------7|


Variation:
G|-------------------------------------------------------|
D|--------------------------------------------------5----|
A|7-----7---77---------5-----7------7---77----5--7-----5-|
E|--------------5--7------7------------------------------|

Bridge:
(And I know you don't wanna let her go)
G|---------------------------------------------------------------|
D|---------------------------------------------------------------|
A|----------------------------------------------------5---5---5--|
E|---------------------------------------------------------------|

G|---------------------------------------------------------------|
D|---------------------------------------------------------------|
A|7---------------------------------------------------5---5---5--|
E|---------------------------------------------------------------|

Chorus:
G|---------------------------------------------------------------|
D|---------------------------------------------------------------|
A|5h7----5h7----5h7----5h7----5h7----5h7----5h7-------5---5---5--|
E|---------------------------------------------------------------| 

G|---------------------------------------------------------------|
D|---------------------------------------------------------------|
A|5h7----5h7----5h7----5h7----5h7----5h7----5h7-------5---5---0--|
E|---------------------------------------------------------------|

G|----------------------------------------------------|
D|----------------------------------------------------|
A|3---3--3-----3--3--0--------------------------------|
E|----------------------------3-----3--3-----3--3---0-|

G|--------------------------------------------------------|
D|--------------------------------------------------------|
A|--------------------------------------------7-----------|
E|5---5--5-----3--5---3----0------------------------------|

(Before verse)
G|---------------------------------------------------------------|
D|---------------------------------------------------------------|
A|----------------------------------------------------5---5---5--|
E|---------------------------------------------------------------|


Variant on verse riff during instrumental break:
G|------------------------|
D|------------------------|
A|---------------5-----5--|
E|0-------5---7-----7-----|



| /  slide up
| \  slide down
| h  hammer-on
| p  pull-off
| ~  vibrato
| +  harmonic
| x  Mute note

            
            
Suggest correction
Creating personal tab
Creating personal tab
You can edit any tab online and save it as your Personal.

You can edit, replace or remove any tab part or add personal notes – all changes will be seen only by you.

Personal tabs can be accessed anytime from any device, even offline.
Learn more »
Give kudos to tab author, rate the tab!
1 2 3 4 5
comments
print report bad tab
guest
You may want to rate the tab now too:
select rating
Wanna post a correction for this tab? Suggest correction