Oops, an error
Loading. Please wait.

Crucial bass

version 2
version 2

Whole song

951 views 1 this week
no commentswrite comment
1 2 3 4 5
3 more votes to show rating
add to favorites
×
Save as Personal and add changes to this tab that will be seen only by you. Learn more ›
×
You can save this tab as Personal to edit and correct it or add notes. All changes will be seen only by you. Learn more »
launch autoscroll
font size
0
reset
guitar tuner
edit
Autoscroll
slow
fast
+/-
esc
set tempo
stop
Author
alright everyone this is the acoustic version
of crucial.
i learn this song by watching the video on youtube...


intro
g|----------------------------------------------|
d|------------------------------5h7-5h7---------|
a|--------------------------5~------------------|
e|--5555-333-1~~~--5555-333---------------------|

g|----------------------------------------------|
d|----------------------------------------------| 
a|--------777---77-5~--555---555-5h7-5h7--------|
e|--555-8-----8------------8--------------------|
 
  a change in the end
g|----------------------------------------------|
d|----------------------------------------------| 
a|--------777---77-5~--555---555----------------|
e|--555-8-----8------------8-----3-4------------|
  
  and again a change
g|----------------------------------------------|
d|-------------------------------5h7-5h7--------| 
a|--------77---77-5~--555---555-----------------|
e|--555-8-----8------------8--------------------|

..the pattern changes
so it will help alot if you check the video on youtube.
http://www.youtube.com/watch?v=m00m0Dvsj2g

alright thats about it people
hope you enjoy and have fun
PLEASE COMMENT ME FOR THIS IS MY FIRST POST UP.




            
            
Suggest correction
Creating personal tab
Creating personal tab
You can edit any tab online and save it as your Personal.

You can edit, replace or remove any tab part or add personal notes – all changes will be seen only by you.

Personal tabs can be accessed anytime from any device, even offline.
Learn more »
Give kudos to tab author, rate the tab!
1 2 3 4 5
comments
print report bad tab
guest
You may want to rate the tab now too:
select rating
Wanna post a correction for this tab? Suggest correction