Oops, an error
Loading. Please wait.

Someday tab

99 views 1 this week
no commentswrite comment
1 2 3 4 5
3 more votes to show rating
add to favorites
×
Save as Personal and add changes to this tab that will be seen only by you. Learn more ›
×
You can save this tab as Personal to edit and correct it or add notes. All changes will be seen only by you. Learn more »
launch autoscroll
font size
0
reset
how to read this tab
guitar tuner
edit
Autoscroll
slow
fast
+/-
esc
set tempo
stop
Difficulty
intermediate
-------------------------------------------------------------------------------
                            "Someday" - Jake Incao
-------------------------------------------------------------------------------
Tabbed by: Musiclover29
Email:john_william13@yahoo.com
www.myspace.com/jakeincaoband
www.jakeincao.com
Tuning: Standard

Throughout the verse keep your pinky finger on the high E(third fret G note) and your 
finger on the B string(third fret D note) and strum through while hitting the main melody notes

Chords C over G to B over G to G strum to F# over D end with B to G all the while strumming

here's the verse pattern. play this throughout
e|--------3-----------3-----------3--------3-----------------------------------------|
B|--------3-----------3-----------3--------3-----------------------------------------|
G|--------------------------h2---2---------------------------------------------------|
D|-------2---------------------------------------------------------------------------|
A|---3----3---2------2---------------2----2------------------------------------------|
E|---------------3----3---3--2---2----3----3--3--------------------------------------|

before first chorus only there's a change. after you hit the G note on the low string 
play C over G back to straight G chord

            
            
Suggest correction
Creating personal tab
Creating personal tab
You can edit any tab online and save it as your Personal.

You can edit, replace or remove any tab part or add personal notes – all changes will be seen only by you.

Personal tabs can be accessed anytime from any device, even offline.
Learn more »
Give kudos to tab author, rate the tab!
1 2 3 4 5
comments
print report bad tab
guest
Wanna post a correction for this tab? Suggest correction