Oops, an error
Loading. Please wait.

Pridemoor Keep - In The Halls Of The Usurper Shovel Knight Ost tab

version 2
version 2

Whole song

805 views 9 this week
no commentswrite comment
1 2 3 4 5
3 more votes to show rating
add to favorites
×
Save as Personal and add changes to this tab that will be seen only by you. Learn more ›
×
You can save this tab as Personal to edit and correct it or add notes. All changes will be seen only by you. Learn more »
launch autoscroll
font size
0
reset
how to read this tab
guitar tuner
edit
Autoscroll
slow
fast
+/-
esc
set tempo
stop
Author
Difficulty
==============================================================================
    Song:   In the Halls of the Usurper (Pridemoor Keep)
    Artist: Jake Kaufman
    Album:  Shovel Knight Soundtrack
    Author: Selorix
    Date:   October 2015
==============================================================================
    Tuning: Standard (E2-A2-D3-G3-B3-e4)
    Key:    G# Minor
    Speed:  150BPM
    Progression: Intro-Verse1-Verse2-Bridge (repeat ad-infinitum)
==============================================================================

Intro:
     E    E    E    E    E    E    E    E    E    E    E    S  S  E    Q
e |--------------------------------------------------------------------------|
B |-16--------16---14---17---16---------%------------------------------------|
G |------13-----------------------13----%---16---15---13---11h13h15---13-----|
D |-------------------------------------%------------------------------------|
A |-------------------------------------%------------------------------------|
E |--------------------------------------------------------------------------|

     E    E    E    E    E    E    E    E    S  S  Q        Q        Q
e |------------------------------------16---18p16p14-------------------------|
B |-16--------16---14---17---16----------------------------14-------16-------|
G |------13-----------------------13-----------------------------------------|
D |--------------------------------------------------------------------------|
A |--------------------------------------------------------------------------|
E |--------------------------------------------------------------------------|

     E    E    E    E    E    E    E    E    E    E    E    S  S  E    Q
e |--------------------------------------------------------------------------|
B |-16--------16---14---17---16---------%------------------------------------|
G |------13-----------------------13----%---16---15---13---11h13h15---13-----|
D |-------------------------------------%------------------------------------|
A |-------------------------------------%------------------------------------|
E |--------------------------------------------------------------------------|

     E    E    E    E    E    E    E    E    S  S  Q        H*
e |------------------------------------16---18p16p14-------------------------|
B |-16--------16---14---17---16----------------------------14----------------|
G |------13-----------------------13-----------------------------------------|
D |--------------------------------------------------------------------------|
A |--------------------------------------------------------------------------|
E |--------------------------------------------------------------------------|

     E    E    H*                       S  S  S  S
e |--------------------------------------------------------------------------|
B |-14-----------------------------------------------------------------------|
G |------16---15-------------------------------------------------------------|
D |------------------------------------13p11---------------------------------|
A |------------------------------------------14p13---------------------------|
E |--------------------------------------------------------------------------|


Verse 1:
     Q        Q        Q        Q        E    S  S  H                E    E
e |--------------------------------------------------------------------------|
B |--------------------------------------------------------------------------|
G |--------------------------------------------------------------------------|
D |-----------------------------9--------8---------------------------9---11--|
A |-11----------------11---------------------11-p9h11------------------------|
E |----------11--------------------------------------------------------------|

     Q        Q        Q        Q        E    S  S  H                E    E
e |--------------------------------------------------------------------------|
B |--------------------------------------------------------------------------|
G |--8-----------------8-------11-------10----8-p6-h8----------------8---11--|
D |--------------------------------------------------------------------------|
A |-----------9--------------------------------------------------------------|
E |--------------------------------------------------------------------------|

     Q        S  S  S  S  Q        E    E    E    S  S  H
e |--------------------------------------------------------------------------|
B |--9-----------------9-----------------------------------------------------|
G |-----------------9----11------------------8-------------------------------|
D |--------------9----------------------9--------11-p9h11--------------------|
A |----------11--------------------9-----------------------------------------|
E |--------------------------------------------------------------------------|

     E    E    H+E                  E    E    E    H*
e |--------------------------------------------------------------------------|
B |--------------------------------------------------------------------------|
G |-------8----9--------------------8----------------------------------------|
D |-11----------------------------------11----9----8-------------------------|
A |--------------------------------------------------------------------------|
E |--------------------------------------------------------------------------|


Verse 2:
     Q        Q        E*     S  Q        E    S  S  E    E    H
e |--------------------------------------------------------------------------|
B |--------------------------------------------------------------------------|
G |--------------------------------------------------------------------------|
D |---------------------------------------9---11-p9-p8-----------------------|
A |----------11-----------------11------------------------9---11-------------|
E |-11----------------11-----11----------------------------------------------|

     E    E    Q        Q        Q        Q        E    S  S  H
e |--------------------------------------------------------------------------|
B |--------------------------------------------------------------------------|
G |------------8-------------------------11-------10------10-p8--------------|
D |--9---11----------------------9---------------------11--------------------|
A |---------------------9----------------------------------------------------|
E |--------------------------------------------------------------------------|

     E    E    Q        H                E    E    Q        H
e |---------------------------------------------------------9----------------|
B |------------9-------12---------------------9---10-------------------------|
G |--8---11-----------------------------11-----------------------------------|
D |--------------------------------------------------------------------------|
A |--------------------------------------------------------------------------|
E |--------------------------------------------------------------------------|

     S  S  S  W                                H*
e |-11-p9-----9--------------------------------------------------------------|
B |-------12-----------------------------------%-----------------------------|
G |--------------------------------------------%-----------------------------|
D |--------------------------------------------%-----------------------------|
A |--------------------------------------------%-----------------------------|
E |--------------------------------------------------------------------------|


Bridge:
     E    E    E    S  S  Q        S  S  S  S  E    E    E    S  S  Q
e |--------------------------------------------------------------------------|
B |--9---11---12----%--9--9-----------------------------12----%--9--9--------|
G |-----------------%-----------------------------------------%--------------|
D |-----------------%-----------------------------------------%--------------|
A |-----------------%-------------11-11-11-11-11---11---------%--------------|
E |--------------------------------------------------------------------------|

     S  S  S  S  E    E    E    S  S  H                W
e |------------------------9-------------------------------------------------|
B |-----------------------------%--9--9----------------%---------------------|
G |-11-11-11-11-11--------------%----------------------%---------------------|
D |-----------------------------%----------------------%---------------------|
A |------------------11---------%----------------------%---------------------|
E |--------------------------------------------------------------------------|

     E    E    E    S  S  Q        S  S  S  S  E    S  S  E    S  S  Q
e |-------------------------------------------------------9------------------|
B |--9---11---12----%--9--9-------------------------9h12-------%--9--9-------|
G |-----------------%------------------------------------------%-------------|
D |-----------------%------------------------------------------%-------------|
A |-----------------%-------------11-11-11-11-11---------------%-------------|
E |--------------------------------------------------------------------------|

     S  S  S  S  E    E    E    S  S  H                Q        Q
e |-------------------9---11-------------------------------------------------|
B |--------------9--------------%--9--9--------------------------------------|
G |-----------------------------%--------------------------------------------|
D |-----------------------------%--------------------------------------------|
A |-11-11-11-11-----------------%---------------------11-------11------------|
E |--------------------------------------------------------------------------|

     S  S  S  S  S  S  S  S  H                S  S  S  S  E    Q        Q
e |-------------------------11---------------------------16---11-------------|
B |----------------11h12h14--------------------------------------------12----|
G |----------11h13-----------------------------------------------------------|
D |-11h13h14-----------------------------------------------------------------|
A |--------------------------------------------------------------------------|
E |------------------------------------------11-11-11-11---------------------|

     S  S  S  S  E    Q        Q        W+Q*
e |-------------11----9------------------------------------------------------|
B |----------------------------9--------%------------------------------------|
G |-11-11-11-11-------------------------%------------------------------------|
D |-------------------------------------%------------------------------------|
A |-------------------------------------%------------------------------------|
E |--------------------------------------------------------------------------|

     E    E    E    E    E    Q        E    E    S  S  E    E    E    Q
e |-16---19---23---21---19---21-------21--------21h23-23---24---23---21------|
B |-----------------------------------------%--------------------------------|
G |-----------------------------------------%--------------------------------|
D |-----------------------------------------%--------------------------------|
A |-----------------------------------------%--------------------------------|
E |--------------------------------------------------------------------------|

     Q        S  S  W+Q*                                         H+E
e |-19-------21p19p18--------------------------------------------------------|
B |--------------------------------------------------------------%-----------|
G |--------------------------------------------------------------%-----------|
D |--------------------------------------------------------------%-----------|
A |--------------------------------------------------------------%-----------|
E |--------------------------------------------------------------------------|

==============================================================================
NOTE:
    If you're like me, your guitar only has 22 frets, so you'll have a hard
    time playing the D#6 and E6 notes in the second-to-last bar (23rd and 24th
    frets on the top string, respectively).

SOLUTION 1: (what I do)
    Play the last riff an octave lower. Replace the last 2 bars with this:

     E    E    E    E    E    Q        E    E    S  S  E    E    E    Q
e |-----------11----9---------9--------9---------9h11-11---12---11----9------|
B |--9---12-------------12------------------%--------------------------------|
G |-----------------------------------------%--------------------------------|
D |-----------------------------------------%--------------------------------|
A |-----------------------------------------%--------------------------------|
E |--------------------------------------------------------------------------|

     Q        S  S  W+Q*                                         H+E
e |--------------------------------------------------------------------------|
B |-12-------14p12p11--------------------------------------------%-----------|
G |--------------------------------------------------------------%-----------|
D |--------------------------------------------------------------%-----------|
A |--------------------------------------------------------------%-----------|
E |--------------------------------------------------------------------------|

SOLUTION 2:
    Tune your guitar a full-step higher (i.e. F#/Gb tuning,
    F#2-B2-E3-A3-C#4-f#4 / Gb2-B2-E3-A3-Db4-gb4), then play everything shifted
    down by 2 frets.

SOLUTION 3:
    Play the song in a different key, or an octave lower. Feel free to submit
    an alternate version. I may do this, but don't plan to right now.

SOLUTION 4:
    Have a 7-string guitar with an added treble string. Assuming your tuning
    is E2-A2-D3-G3-B3-e4-a4, replace the second-to-last bar with this:

     E    E    E    E    E    Q        E    E    S  S  E    E    E    Q
a |-----------18---16--------16-------16--------16h18-18---19---18---16------|
e |-16---19-------------19------------------%--------------------------------|
B |-----------------------------------------%--------------------------------|
G |-----------------------------------------%--------------------------------|
D |-----------------------------------------%--------------------------------|
A |-----------------------------------------%--------------------------------|
E |--------------------------------------------------------------------------|

==============================================================================
LEGEND:
    h   hammer on
    p   pull off
    %   rest

RHYTHM: (above bars)
    S   sixteenth
    E   eighth
    Q   quarter
    H   half
    W   whole
    X*  dotted note
    X+Y tied note
==============================================================================

            
            
Suggest correction
Creating personal tab
Creating personal tab
You can edit any tab online and save it as your Personal.

You can edit, replace or remove any tab part or add personal notes – all changes will be seen only by you.

Personal tabs can be accessed anytime from any device, even offline.
Learn more »
Give kudos to tab author, rate the tab!
1 2 3 4 5
comments
print report bad tab
guest
You may want to rate the tab now too:
select rating
Wanna post a correction for this tab? Suggest correction