Oops, an error
Loading. Please wait.

What Is This tab

220 views 1 this week
1 commentread comment
1 2 3 4 5
1 last vote to show rating
add to favorites
×
Save as Personal and add changes to this tab that will be seen only by you. Learn more ›
×
You can save this tab as Personal to edit and correct it or add notes. All changes will be seen only by you. Learn more »
launch autoscroll
font size
0
reset
how to read this tab
guitar tuner
edit
Autoscroll
slow
fast
+/-
esc
set tempo
stop
Author
[Intro]

E|---------------------------------------------------------------------------|
B|---------------------------------------------------------------------------|
G|---------------------------------------------------------------------------|
D|---------------------------------------------------------------------------|
A|---6-66--------------------------------------------------------------------|x5
E|79------97-----------------------------------------------------------------|


[Verse] (you can use power chords as well, but on the audio it kinda sounds like he's only playing notes)

E|---------------------------------------------------------------------------|
B|---------------------------------------------------------------------------|
G|---------------------------------------------------------------------------|
D|---------------------------------------------------------------------------|x4
A|-------------6666----------------------------------------------------------|
E|7777777-4444---------------------------------------------------------------|


[Interlude]

Guitar 1
e|---------------------------------------------------------------------------|
B|7777777777777554444444444444----777777777777755444444-2--4--5--------------|
G|---------------------------------------------------------------------------|x2
D|---------------------------------------------------------------------------|
A|---------------------------------------------------------------------------|
E|---------------------------------------------------------------------------|

Guitar 2

E|---------------------------------------------------------------------------|
B|---------------------------------------------------------------------------|
G|---------------------------------------------------------------------------|
D|---------------------------------------------------------------------------|
A|---6-66-------------6------------------------------------------------------|x2
E|79-----97-(x2)--779--------------------------------------------------------|


Verse 2


[Interlude]

e|---------------------------------------------------------------------------|
B|---------------------------------------------------------------------------|
G|----------999999-111111111111----------------------------------------------|
D|999999999-999999-111111111111----------------------------------------------|
A|999999999-777777-9-9-9-9-9-9-----------------------------------------------|x6
E|777777777------------------------------------------------------------------|


Interlude

Half of verse 1

Chorus

Interlude


Hey, this is my first tab for an amazing artist/band. I know there are some lead guitar parts that are a bit
different, but i think this is quite accurate. Enjoy x - Ane 

            
            
Suggest correction
Creating personal tab
Creating personal tab
You can edit any tab online and save it as your Personal.

You can edit, replace or remove any tab part or add personal notes – all changes will be seen only by you.

Personal tabs can be accessed anytime from any device, even offline.
Learn more »
Give kudos to tab author, rate the tab!
1 2 3 4 5
comments
print report bad tab
1 comment total.
0 reply
TheMessageMan 12 May 13, 2017 11:55 AM

excellent job, this sounds great to me! :)

guest
You may want to rate the tab now too:
select rating
Wanna post a correction for this tab? Suggest correction