Oops, an error
Loading. Please wait.

The Hero chords

version 1
version 1

Whole song

  • This is the Rhythm Guitar for this song.
709 views 3 this week
no commentswrite comment
1 2 3 4 5
2 more votes to show rating
add to favorites
×
Save as Personal and add changes to this tab that will be seen only by you. Learn more ›
×
You can save this tab as Personal to edit and correct it or add notes. All changes will be seen only by you. Learn more »
launch autoscroll
font size
0
reset
transpose
0
reset
display chords
guitar tuner
edit
Autoscroll
slow
fast
+/-
esc
set tempo
stop
About this tab version
This is the Rhythm Guitar for this song. Was this info helpful? Yes No
Strumming
There is no strumming pattern for this song yet. and get +5 IQ
"THE HERO !!" 
by JAM Project
One Punch Man - Opening 1
Tuning: Drop D (D A D G B e)

[Chords]
D   000xxx  A     777xxx
F   333xxx  Bb    888xxx
Gb  444xxx  B     999xxx
G   555xxx  Gb/5+ 454xxx
Ab  666xxx  Bb/5+ 898xxx

[Riff 1]
e|--------------------------|
B|--------------------------|
G|--------------------------|
D|--------------------------|
A|--------------------------|
D|--0h3--0h3--0h3--0h3--0---|

[Riff 2]
   p.m................|
e|--------------------|
B|--------------------|
G|--------------------|
D|--------------------|
A|--------------------|
D|--0000000000000000--|

[Riff 2+]
(Same as Riff 2, but different rhythm)
   p.m.........................................|
e|---------------------------------------------|
B|---------------------------------------------|
G|---------------------------------------------|
D|---------------------------------------------|
A|---------------------------------------------|
D|--0--0--0--0--0--0--0--0--0--0--0--0--0--0---|

[Riff 3]
e|--------------------------------------|
B|--------------------------------------|
G|--------------------------------------|
D|--7h9-x-9--7h9-x-9--7h9-x-9~-----15\--|
A|--7h9-x-9--7h9-x-9--7h9-x-9~-----15\--|
D|--7h9-x-9--7h9-x-9--7h9-x-9~-----15\--|

"THE HERO !!"

[Intro]
D F G F G Ab
D F G Ab A
D F G F G Ab

B    G     D     A
ONE PUNCH! 
B    G     Gb    A

[Riff 1]
(Three! Two! One! Kill shot!) 
[Riff 2]
sanjou!   hisshou!   shijou saikyou 
[Riff 1]x2
nan dattenda?   FURASUTOREESHON   ore wa tomaranai 
[Riff 2]
ONE PUNCH!   kanryou!   rensen renshou 
[Intro: D F G F G Ab    D F G Ab A]
ore wa katsu!!   tsune ni katsu!!   asshou!! 

[Riff 2+]         A   Bb~        A  A  A
Power! Get power!   GIRIGIRI genkai made 

B      G          D      A    B          G      A          B
HERO   ore o tataeru koe ya   kassai nante   hoshikute wa nai sa 
B      G          D      A    B          G
HERO   dakara   hitoshirezu   aku to tatakau 
A
(Nobody knows who he is.) 
Gb/5+   G     A       Bb/5+   B       G     A      D
sora ooi   oshiyoseru teki   ore wa se o muke wa shinai 
  B      G          D         A          B       G      A
HERO   naraba   yuruginaki kakugo shita tame   tatakau HERO 
B    G     D     A
B    G     Gb    A
          kodoku na HERO
B    G     D     A
B    G     Gb    A

[Riff 3]

************************************

| x  Dead note
| h  Hammer-on
| \  Slide down
| ~  Vibrato

************************************

            
            
Suggest correction
Creating personal tab
Creating personal tab
You can edit any tab online and save it as your Personal.

You can edit, replace or remove any tab part or add personal notes – all changes will be seen only by you.

Personal tabs can be accessed anytime from any device, even offline.
Learn more »
Give kudos to tab author, rate the tab!
1 2 3 4 5
comments
print report bad tab
guest
You may want to rate the tab now too:
select rating
Wanna post a correction for this tab? Suggest correction