Oops, an error
Loading. Please wait.

Remember Who I Was tab

1,093 views 15 this week
2 commentsread comments
1 2 3 4 5
2 more votes to show rating
add to favorites
×
Save as Personal and add changes to this tab that will be seen only by you. Learn more ›
×
You can save this tab as Personal to edit and correct it or add notes. All changes will be seen only by you. Learn more »
launch autoscroll
font size
0
reset
how to read this tab
guitar tuner
edit
Autoscroll
slow
fast
+/-
esc
set tempo
stop
Author
Difficulty
About this tab version
The guitar is rather quiet in the album recording, so some parts can be changed up a bit. Although, what's written is fairly accurate. Was this info helpful? Yes No
[Reoccurring Rhythm]
|   x |     x   |   x |     x
1 & 2 & 3 & 4 & 1 & 2 & 3 & 4 &

[Intro] 
E|------------------------------------------------------------------------|
B|------------------------------------------------------------------------|
G|----------------------4---------------------------------4---------------|
D|----8------5-----------------6--------8------5-----------------6--------|
A|----6---------------------------------6---------------------------------|
E|-----------6----------4------4---------------6----------4------4--------|

[Verse]
E|------------------------------------------------------------------------|\
B|------------------------------------------------------------------------| \
G|----------------------4---------------------------------4---------------|  \
D|----8------5-----------------6--------8------5-----------------6--------|   \
A|----6---------------------------------6---------------------------------|    \
E|-----------6----------4------4---------------6----------4------4--------|     \
                                                                                 \
E|--------------------------------------|                                         \
B|--------------------------------------|                                          \
G|----8-----------------7---------------|                                          / x2        
D|-----------10----------------8--------|                                         /          
A|--------------------------------------|                                        /
E|----8------8----------6------6--------|                                       /

E|--------------------------------------|
B|--------------------------------------|
G|----3--------------------4------------|
D|-----------6-------------3------------|
A|-------------------------2------------|
E|----4------4-------------4------------|

[Chorus]
E|------------------------------------------------------------------------|
B|---------------------------------------------4------------------4-------|
G|----------------------7------7--------5------5-------------------4------| x2
D|----5------5-----------------5--------------------------6------6--6-----|
A|--------------------------------------3------3---------------------5----|
E|----6------6----------6------6--------------------------4------4--------|

E|------------------------------------------------------------------------|
B|----------------------------------------------------------------4-------|
G|----8-----------------4---------------8-----------------4--------4-4----|
D|----8------8-----------------6--------8------8-----------------6----6---|
A|----6------6--------------------------6------6--------------------------|
E|----------------------4------4--------------------------4------4--------|

[Verse]
E|------------------------------------------------------------------------|\
B|------------------------------------------------------------------------| \
G|----------------------4---------------------------------4---------------|  \
D|----8------5-----------------6--------8------5-----------------6--------|   \
A|----6---------------------------------6---------------------------------|    \
E|-----------6----------4------4---------------6----------4------4--------|     \
                                                                                 \
E|--------------------------------------|                                         \
B|--------------------------------------|                                          \
G|----8-----------------7---------------|                                          / x2        
D|-----------10----------------8--------|                                         /          
A|--------------------------------------|                                        /
E|----8------8----------6------6--------|                                       /

E|--------------------------------------|
B|--------------------------------------|
G|----3--------------------4------------|
D|-----------6-------------3------------|
A|-------------------------2------------|
E|----4------4-------------4------------|

[Chorus]
E|------------------------------------------------------------------------|
B|---------------------------------------------4------------------4-------|
G|----------------------7------7--------5------5-------------------4------| x2
D|----5------5-----------------5--------------------------6------6--6-----|
A|--------------------------------------3------3---------------------5----|
E|----6------6----------6------6--------------------------4------4--------|

E|------------------------------------------------------------------------|
B|----------------------------------------------------------------4-------|
G|----8-----------------4---------------8-----------------4--------4-4----| x2
D|----8------8-----------------6--------8------8-----------------6----6---|
A|----6------6--------------------------6------6--------------------------|
E|----------------------4------4--------------------------4------4--------|

            
            
Suggest correction
Creating personal tab
Creating personal tab
You can edit any tab online and save it as your Personal.

You can edit, replace or remove any tab part or add personal notes – all changes will be seen only by you.

Personal tabs can be accessed anytime from any device, even offline.
Learn more »
Give kudos to tab author, rate the tab!
1 2 3 4 5
comments
print report bad tab
2 comments total.
+1 reply
tkeys20 10 May 23, 2017 11:48 PM

Great job.

0 reply
coley_4050 10 Jul 27, 2017 09:52 AM

Yeah. Great job.

guest
You may want to rate the tab now too:
select rating
Wanna post a correction for this tab? Suggest correction