Oops, an error
Loading. Please wait.
We have an official Let It Go tab made by UG professional guitarists. Check out the tab »
×

Let It Go intro tab

version 2
version 2

Intro

Interactive

43,599 views 150 this week
4 commentsread comments
1 2 3 4 5
x 29
add to favorites
×
Save as Personal and add changes to this tab that will be seen only by you. Learn more ›
×
You can save this tab as Personal to edit and correct it or add notes. All changes will be seen only by you. Learn more »
launch autoscroll
font size
0
reset
how to read this tab
guitar tuner
edit
Autoscroll
slow
fast
+/-
esc
set tempo
stop
Author
Difficulty
-------------------------------------------------------------------------------
                             Let It Go - James Bay
-------------------------------------------------------------------------------
Tabbed by: HollaAtMeDawg

Just the intro for lead guitar. Fairly sure it's correct but let me know 
if you think anything is wrong and I'll correct it :)

Tuning: Standard

e|-------------------------------------------------------------------------|
B|-------14-----14----------------13-14-14---------11----------------------|
G|10/11-------------11-10---------------------10--------13-----------------|
D|-------------------------------------------------------------------------|
A|-------------------------------------------------------------------------|
E|-------------------------------------------------------------------------|

e|-----------------------------------------------------------------------|
B|-------14------14----------------13-14-14------------------------------|
G|10/11--------------11-10---------------------10--13--------------------|
D|-----------------------------------------------------------------------|
A|-----------------------------------------------------------------------|
E|-----------------------------------------------------------------------|



************************************

| /  Slide up

************************************

            
            
Suggest correction
Creating personal tab
Creating personal tab
You can edit any tab online and save it as your Personal.

You can edit, replace or remove any tab part or add personal notes – all changes will be seen only by you.

Personal tabs can be accessed anytime from any device, even offline.
Learn more »
comments
print report bad tab
4 comments total. Showing first comments.
0 reply
darcy betlehem 58 Jun 19, 2015 10:17 PM

This is great. Thanks! :)

+9 reply
cyberchrism 10 Nov 14, 2015 10:14 AM

Hey I just play it slightly different, with a slide from 11 to 15 instead of 11 to 10. That's how I hear it at least. Other than that, great tab

e|-------------------------------------------------------------------------|
B|-------14-----14----------------13-14-14---------11----------------------|
G|10/11-------------11/15---------------------10--------13-----------------|
D|-------------------------------------------------------------------------|
A|-------------------------------------------------------------------------|
E|-------------------------------------------------------------------------|

e|-----------------------------------------------------------------------|
B|-------14------14----------------13-14-14------------------------------|
G|10/11--------------11/15---------------------10--13--------------------|
D|-----------------------------------------------------------------------|
A|-----------------------------------------------------------------------|
E|-----------------------------------------------------------------------|

0 reply
lichao123q123 10 Jun 17, 2017 07:54 AM

Is way better thx

guest
You may want to rate the tab now too:
select rating
Wanna post a correction for this tab? Suggest correction