Oops, an error
Loading. Please wait.

Paradise tab

151 views 1 this week
no commentswrite comment
1 2 3 4 5
2 more votes to show rating
add to favorites
×
Save as Personal and add changes to this tab that will be seen only by you. Learn more ›
×
You can save this tab as Personal to edit and correct it or add notes. All changes will be seen only by you. Learn more »
launch autoscroll
font size
0
reset
how to read this tab
guitar tuner
edit
Autoscroll
slow
fast
+/-
esc
set tempo
stop
About this tab version
Full tab with all guitar overdubs. Was this info helpful? Yes No
[Intro]

** Synth plays F#, C#, G#

[Verse]
   Synth Chords:

A#m            F#
Holding back, Going black
C#             G#
Oh god, you're beautiful
A#m            F#
In my throat, Kaleidoscope
C#             G#
Oh god, it's beautiful



[Prechorus]

e|--6-------------------------|--4----------------------------|
B|--7-------------------------|--6----------------------------|
G|--6-------------------------|--6----------------------------|
D|----------------------------|--6----------------------------|
A|----------------------------|-------------------------------|
E|----------------------------|-------------------------------|
      "I feel my heart beating      I feel my blood pumping"

e|--8-------------------------|--9----------------------------|
B|--9-------------------------|-11----------------------------|
G|--8-------------------------|-10----------------------------|
D|----------------------------|-------------------------------|
A|----------------------------|-------------------------------|
E|----------------------------|-------------------------------|
      "It is a love     coming up    And it's me or nothing"

e|--6-------------------------|--4----------------------------|
B|--7-------------------------|--6----------------------------|
G|--6-------------------------|--6----------------------------|
D|----------------------------|--6----------------------------|
A|----------------------------|-------------------------------|
E|----------------------------|-------------------------------|
      "Like a lifesafer              All the signs say that"

e|--5-------------------------|-------------------------------|
B|--6-------------------------|-------------------------------|
G|--5-------------------------|-------------------------------|
D|--7-------------------------|-------------------------------|
A|----------------------------|-------------------------------|
E|----------------------------|-------------------------------|
      "There may be trouble in my head"



[Chorus]

    2 separate parts written together (one may be bass guitar)
e|------------------------------|-------------------------------|
B|------------------------------|-------------------------------|
G|------------------------------|-------------------------------|
D|------------------------------|-------------------------------|
A|-4-----4---4-4---4-4---4-4----|-6------6---6-6---6-6---6-6----| <- 6's can be played 1st fret D
E|-6-----6---6-6---6-6---6-6----|-2------2---2-2---2-2---2-2----|
 "Let love be the reason for breathing


e|------------------------------|-------------------------------|
B|------------------------------|-------------------------------|
G|------------------------------|-------------------------------|
D|------------------------------|-------------------------------|
A|-/8----8---8-8---8-8---8-8----|-6------6---6-6---6-6---6-6----|
E|-/9----9---9-9---9-9---9-9----|-4------4---4-4---4-4---4-4----|
 "Let love be the light in your eye"


Continue Lyrics as Chorus repeats 3x:
 
"Cause you and me don't need a reason
 To fall in love tonight
 So darlin', won't you close your eyes?
 Hold on tight, We'll find paradise
 Let love be the reason for breathing
 You and I, you and I tonight"



[Verse 2]

Continue previous Chorus riff:
e|------------------------------|-------------------------------|
B|------------------------------|-------------------------------|
G|------------------------------|-------------------------------|
D|------------------------------|-------------------------------|
A|-4-----4---4-4---4-4---4-4----|-6------6---6-6---6-6---6-6----|
E|-6-----6---6-6---6-6---6-6----|-2------2---2-2---2-2---2-2----|

e|------------------------------|-------------------------------|
B|------------------------------|-------------------------------|
G|------------------------------|-------------------------------|
D|------------------------------|-------------------------------|
A|-/8----8---8-8---8-8---8-8----|-6------6---6-6---6-6---6-6----|
E|-/9----9---9-9---9-9---9-9----|-4------4---4-4---4-4---4-4----|

Lyrics:

"Freefall, Recall"
"Oh god, it's beautiful"
"Cold sweat, Regret"
"Oh no, it's beautiful"



[Prechorus 2]

e|-------------------------------|------------------------------|
B|-------------------------------|------------------------------|
G|-------------------------------|------------------------------|
D|-------------------------------|------------------------------|
A|-6------6---6-6---6-6---6-6----|-4-----4---4-4---4-4---4-4----|
E|-2------2---2-2---2-2---2-2----|------------------------------|
      "I feel my heart beating        I feel my blood pumping"

e|------------------------------|-------------------------------|
B|------------------------------|-------------------------------|
G|------------------------------|-------------------------------|
D|------------------------------|-------------------------------|
A|-3-----3---3-3---3-3---3-3----|-4------4---4-4---4-4---4-4----|
E|-4-----4---4-4---4-4---4-4----|-6------6---6-6---6-6---6-6----|
      "It is a love    coming up        And it's me or nothing"

e|-------------------------------|------------------------------|
B|-------------------------------|------------------------------|
G|-------------------------------|------------------------------|
D|-------------------------------|------------------------------|
A|-6------6---6-6---6-6---6-6----|-4-----4---4-4---4-4---4-4----|
E|-2------2---2-2---2-2---2-2----|------------------------------|
          "Like a lifesafer,             all the signs say that"

e|------------------------------|------------------------------|
B|------------------------------|------------------------------|
G|------------------------------|------------------------------|
D|-3-----3---3-3---3-3---3-3----|-3-----3---3-3---3-3---3-3----|
A|------------------------------|------------------------------|
E|-1-----1---1-1---1-1---1-1----|-1-----1---1-1---1-1---1-1----|
    "There may be trouble in my head"



[Chorus 2]

e|------------------------------|-------------------------------|
B|------------------------------|-------------------------------|
G|------------------------------|-------------------------------|
D|------------------------------|-------------------------------|
A|-4-----4---4-4---4-4---4-4----|-6------6---6-6---6-6---6-6----| <- 6's can be played 1st fret D
E|-6-----6---6-6---6-6---6-6----|-2------2---2-2---2-2---2-2----|
 "Let love be the reason for breathing


e|------------------------------|-------------------------------|
B|------------------------------|-------------------------------|
G|------------------------------|-------------------------------|
D|------------------------------|-------------------------------|
A|-/8----8---8-8---8-8---8-8----|-6------6---6-6---6-6---6-6----|
E|-/9----9---9-9---9-9---9-9----|-4------4---4-4---4-4---4-4----|
 "Let love be the light in your eye"

Lyrics with Chorus Repeats:

"'Cause you and me don't need a reason
To fall in love tonight
So darlin', won't you close your eyes?
Hold on tight
We'll find paradise
Let love be the reason for breathing
You and I, you and I tonight"



[Bridge]

F#                            A#m
Spent my life tryin' to find
G#
Paradise, paradise
F#                            C#
Spent my life tryin' to find
G#
You

Guitar Lick in 3rd lyric line:
e|-------6------------|------------------------------|
B|----6-----6---------|-9~---------------------------|
G|---------------6----|------------------------------|
D|-8------------------|------------------------------|
A|--------------------|------------------------------|
E|--------------------|------------------------------|



[Final Chorus]
   The part from previous Choruses is played again but another Guitar is added in

   pick each note in this part as a bar of 16ths: 
e|-------------------------|---------------------------|-------------------------|-------------------------|
B|-------------------------|---------------------------|-------------------------|-------------------------|
G|-6-----------------------|-8-------------------------|-10----------------------|-8-----------------------|
D|-------------------------|---------------------------|-------------------------|-------------------------|
A|-------------------------|---------------------------|-------------------------|-------------------------|
E|-------------------------|---------------------------|-------------------------|-------------------------|
  "Let love be the reason for breathing               Let love be the light in your eye"

e|-------------------------|---------------------------|-------------------------|-------------------------|
B|-------------------------|---------------------------|-------------------------|-------------------------|
G|-6-----------------------|-8-------------------------|-10----------------------|-8-----------------------|
D|-------------------------|---------------------------|-------------------------|-------------------------|
A|-------------------------|---------------------------|-------------------------|-------------------------|
E|-------------------------|---------------------------|-------------------------|-------------------------|
  "'Cause you and me don't need a reason                 To fall    in love    tonight So darlin', won't you"

e|-------------------------|---------------------------|-------------------------|-------------------------|
B|-------------------------|---------------------------|-------------------------|-------------------------|
G|-6-----------------------|-8-------------------------|-10----------------------|-8-----------------------|
D|-------------------------|---------------------------|-------------------------|-------------------------|
A|-------------------------|---------------------------|-------------------------|-------------------------|
E|-------------------------|---------------------------|-------------------------|-------------------------|
  "close your eyes?          Hold on tight                           We'll find paradise"

e|-------------------------|---------------------------|-------------------------|-------------------------|
B|-------------------------|---------------------------|-------------------------|-9-----------------------|
G|-6-----------------------|-8-------------------------|-10----------------------|-------------------------|
D|-------------------------|---------------------------|-------------------------|-------------------------|
A|-------------------------|---------------------------|-------------------------|-------------------------|
E|-------------------------|---------------------------|-------------------------|-------------------------|
  "Let love be the reason for breathing                                You and I, you and I tonight



************************************

| /   Slide up

************************************

            
            
Suggest correction
Creating personal tab
Creating personal tab
You can edit any tab online and save it as your Personal.

You can edit, replace or remove any tab part or add personal notes – all changes will be seen only by you.

Personal tabs can be accessed anytime from any device, even offline.
Learn more »
Give kudos to tab author, rate the tab!
1 2 3 4 5
comments
print report bad tab
guest
You may want to rate the tab now too:
select rating
Wanna post a correction for this tab? Suggest correction