Oops, an error
Loading. Please wait.

Resurection Song tab

79 views 1 this week
no commentswrite comment
1 2 3 4 5
3 more votes to show rating
add to favorites
×
Save as Personal and add changes to this tab that will be seen only by you. Learn more ›
×
You can save this tab as Personal to edit and correct it or add notes. All changes will be seen only by you. Learn more »
launch autoscroll
font size
0
reset
how to read this tab
guitar tuner
edit
Autoscroll
slow
fast
+/-
esc
set tempo
stop
[Intro] 0:00-0:16

  PM PM                 PM PM                 PM PM                7 Beats
e|--3--3--7--7------------3--3--7--7------------3--3--7--7------------3------|
B|--3--3--7--7------------3--3--7--7------------3--3--7--7------------3------|
G|--4--4--8--8------------4--4--8--8------------4--4--8--8------------4------|
D|--5--5--9--9------------5--5--9--9------------5--5--9--9------------5------|
A|--5--5--9--9------------5--5--9--9------------5--5--9--9------------5------|
E|--------------3--3h5p3--------------3--3h5p3--------------3--3h5p3---------|


[Verse]

G
I hid in shame
B
And thin disguise
G
You peeled the scales
B
Back from my eyes
C            A
You found me lost and hungry
C               A
Fed my soul and gave me a new name


[Chorus]

e|--3--s--3--s--7--s--7--s--8--s--8--s--5--s--5------------------------------|
B|--3--s--3--s--7--s--7--s--8--s--8--s--5--s--5------------------------------|
G|--4--s--4--s--8--s--8--s--9--s--9--s--6--s--6------------------------------|
D|--5--s--5--s--9--s--9--s--10-s--10-s--7--s--7------------------------------|
A|--5--s--5--s--9--s--9--s--10-s--10-s--7--s--7------------------------------|
E|---------------------------------------------------------------------------|

 END
e|--8--7--6--5--3------------------------------------------------------------|
B|--8--7--6--5--3------------------------------------------------------------|
G|--9--8--7--6--4------------------------------------------------------------|
D|--10-9--8--7--5------------------------------------------------------------|
A|--10-9--8--7--5------------------------------------------------------------|
E|---------------------------------------------------------------------------|


[Bridge]

B
It’s no longer I who live
C 
But Christ in me

We sing:
A
“Grave where is thy victory, now
C
O death where is thy sting?”



************************************

| h  Hammer-on
| p  Pull-off
| s  Slap

************************************

            
            
Suggest correction
Creating personal tab
Creating personal tab
You can edit any tab online and save it as your Personal.

You can edit, replace or remove any tab part or add personal notes – all changes will be seen only by you.

Personal tabs can be accessed anytime from any device, even offline.
Learn more »
Give kudos to tab author, rate the tab!
1 2 3 4 5
comments
print report bad tab
guest
Wanna post a correction for this tab? Suggest correction