Oops, an error
Loading. Please wait.
We have Chord Pro version of Carolina In My Mind.
It's the closest thing you can get to the original song and it has interactive parts. Check out the tab »
×
803 views 3 this week
no commentswrite comment
1 2 3 4 5
2 more votes to show rating
add to favorites
×
Save as Personal and add changes to this tab that will be seen only by you. Learn more ›
×
You can save this tab as Personal to edit and correct it or add notes. All changes will be seen only by you. Learn more »
launch autoscroll
font size
0
reset
how to read this tab
guitar tuner
edit
Autoscroll
slow
fast
+/-
esc
set tempo
stop
Capo 3


CHORUS
1   In my mind I'm going to Carolina
2   Can't you see the sunshine, can't you just feel the moonshine?
3   Ain't it just like a friend of mine to hit me from behind?
4   And I'm going to Carolina in my mind

VERSE
1   Karen she's the silver sun, you best walk her way and watch it shine,
2   Watch her watch the morning come
3   A silver tear appearing now, I'm crying, ain't I?
4   I'm going to Carolina in my mind

VERSE
1   There ain't no doubt in no ones mind that loves the finest thing around,
2   Whisper something soft and kind
3   Hey, baby, the sky's on fire, I'm dying, ain't I?
4   I'm going to Carolina in my mind

CHORUS
1   In my mind I'm going to Carolina
2   Can't you see the sunshine, can't you just feel the moonshine?
3   Ain't it just like a friend of mine to hit me from behind?
4   And I'm going to Carolina in my mind

VERSE
1B  Dark and silent late last night, I think I might have heard the highway calling
2B  Geese in flight and dogs that bite
3   And signs that might be omens say I'm going, going 
4   I'm gone to Carolina in my mind

BRIDGE
1   It's with a holy host of others standing round me, 
2   Still I'm on the dark side of the moon,
3   And it looks like it goes on like this forever
4   You must forgive me
5   If I'm going to Carolina in my mind

CHORUS
1   In my mind I'm going to Carolina
2   Can't you see the sunshine, can't you just feel the moonshine?
3   Ain't it just like a friend of mine to hit me from behind?
4   And I'm going to Carolina in my mind

OUTRO
1
2   I'm going to Carolina in my mind


INTRO
  1   2   3   4     1   2   3   4     1   2   3   4     1   2   3   4     1   2   3   4     
|---------2p0-----|-0h2-------------|-3-X-----------3-|-------3---------|-------3---------|
|-------3-----3---|-------3---3-----|-------3-------3-|---3---3---3-----|---3---3---3-----|
|-----2---------2-|-----2-------2p0-|-----0-----0-----|-----0-------0---|-----0-------0-X-|
|-X-X-------------|-0-------0-------|-----------------|-----------------|-----------------|
|-----------------|-----------------|-----------------|-----------------|-0-------0-------|
|-----------------|-----------------|-3-X-----3---2---|-0-------0-----0-|-----------------|


CHORUS 1  In my mind I'm going to Carolina

|---------2-------|-----------------|-------0---0-----|-0-----0---------|
|---3-------3-----|---3-------3-----|-----------0-----|-0h2-------0-----|
|-----2-------2---|-----0-------0---|---2-----------2-|-------------2---|
|-0-----0-------0-|-------0-------0-|-----2-------2---|-----2---------2-|
|-----------------|-----------------|-0-------0-------|-0-------0-------|
|-----------------|-3-------0-------|-----------------|-----------------|

CHORUS 2  Can't you see the sunshine, can't you just feel the moonshine?

|---------------0-|-----------------|---------------0-|-----------------|
|-------3---------|-------2-X-X-----|-------3---------|-----0h2-X-X-----|
|-----0-----0-----|-----2-------2-X-|-----0-----0-----|-------------2-X-|
|---0---------0---|---2-------------|---2---------2---|---2-------------|
|-----------------|-0---------------|-----------------|-0---------------|
|-3-------3-------|-----------------|-0-------0-------|-----------------|

CHORUS 3  Ain't it just like a friend of mine, to hit me from behind?

|-0h2-------------|-----------------|-----------------|---0-------------|
|-------3---3---3-|---3---3---3---0-|-0-X-------3-----|-------3-X-X-X-X-|
|-----2-------0---|-----0-------0---|-------2-------1-|-----------------|
|-0---------------|-----------------|-----0-------0---|-----0-----------|
|---------4-------|-2-------0-------|-----------------|-----------------|
|-----------------|-----------------|-3-X-----2-------|-0---------------|

CHORUS 4  And I'm going to Carolina in my mind

|-0h2-------------|---0-------------|-------------0---|-0h2---2---------|
|-------3-------3-|-----3-------3---|-------3-------3-|-----------3---3-|
|-----2-------2---|-------0-------0-|-----2-----0-----|-----2-----------|
|-0---------------|-----------------|-0-X-----0-------|-0-------0-------|
|---------0h2-----|---------0-X-----|-----------------|-------------2---|
|-----------------|-0---------------|-----------------|-----------------|



VERSE 1  Karen she's the silver sun, you best walk her way and watch it shine,
  D                 Cadd9             G                 A
|---------2-------|---------0-x-----|---------------0-|-----------0-----|
|---3-------3-----|-----------------|-------3---------|-----0h2---------|
|-----2-------2---|---0-----------0-|-----0-----0-----|---2-----2-----2-|
|-0-----0-------0-|-----2-------2---|---0-------------|-----------------|
|-----------------|-3-----3---------|-----------------|-0-----------0---|
|-----------------|-----------------|-3-------3---3---|-----------------|


VERSE 2  Watch her watch the morning come
  Bm                G                 A                 A
|-----------------|---------------0-|-------0---0-----|-0-----0---------|
|-------3---------|-------3---------|-----------0-----|-0h2-------0-----|
|-----------4-----|-----0-----0-----|---2-----------2-|-------------2---|
|-----4-------4---|---0-------------|-----2-------2---|-----2---------2-|
|-2-X-----2-----2-|-----------------|-0-------0-------|-0-------0-------|
|-----------------|-3-------3---3---|-----------------|-----------------|


VERSE 3  A silver tear appearing now I'm crying, ain't I?
  G                 D/F#              B                 Asus
|-----------------|-----------------|-----------------|-----------------|
|-------3---------|-------3---------|-----3-------3---|---3---2-----2h3-|
|-----0-----0-----|---2-------2---2-|---2---1-------1-|-----0-----------|
|---0-----------0-|-----0-------0---|-----------------|-----------------|
|-----------------|-----------------|-2---------------|-0-------0-X-----|
|-3-------3---3---|-2-------2-------|---------0-X-----|-----------------|

VERSE 4  I'm going to Carolina in my mind

|-----------------|---0-------------|-------------0---|-0h2---2---------|
|-----3---------3-|-----3-------3---|-------3-------3-|-----------3---3-|
|---2---2-----2---|-------0-------0-|-----2-----0-----|-----2-----------|
|-0---------------|-----------------|-0-X-----0-------|-0-------0-------|
|---------0h2-----|---------0-X-----|-----------------|-------------2---|
|-----------------|-0---------------|-----------------|-----------------|



VERSE 1  There ain't no doubt in no ones mind that loves the finest thing around,
  D                 Cadd9             G                 A
|---------2-------|---------0-x-----|---------------0-|-----------0-----|
|---3-------3-----|-----------------|-------3---------|-----0h2---------|
|-----2-------2---|---0-----------0-|-----0-----0-----|---2-----2-----2-|
|-0-----0-------0-|-----2-------2---|---0-------------|-----------------|
|-----------------|-3-----3---------|-----------------|-0-----------0---|
|-----------------|-----------------|-3-------3---3---|-----------------|


VERSE 2  Whisper something soft and kind
  Bm                G                 A                 A
|-----------------|---------------0-|-------0---0-----|-0-----0---------|
|-------3---------|-------3---------|-----------0-----|-0h2-------0-----|
|-----------4-----|-----0-----0-----|---2-----------2-|-------------2---|
|-----4-------4---|---0-------------|-----2-------2---|-----2---------2-|
|-2-X-----2-----2-|-----------------|-0-------0-------|-0-------0-------|
|-----------------|-3-------3---3---|-----------------|-----------------|


VERSE 3  Hey, baby, the sky's on fire, I'm dying, ain't I?
  G                 D/F#              B                 Asus
|-----------------|-----------------|-----------------|-----------------|
|-------3---------|-------3---------|-----3-------3---|---3---2-----2h3-|
|-----0-----0-----|---2-------2---2-|---2---1-------1-|-----0-----------|
|---0-----------0-|-----0-------0---|-----------------|-----------------|
|-----------------|-----------------|-2---------------|-0-------0-X-----|
|-3-------3---3---|-2-------2-------|---------0-X-----|-----------------|

VERSE 4  I'm going to Carolina in my mind

|-----------------|---0-------------|-------------0---|-0h2---2---------|
|-----3---------3-|-----3-------3---|-------3-------3-|-----------3---3-|
|---2---2-----2---|-------0-------0-|-----2-----0-----|-----2-----------|
|-0---------------|-----------------|-0-X-----0-------|-0-------0-------|
|---------0h2-----|---------0-X-----|-----------------|-------------2---|
|-----------------|-0---------------|-----------------|-----------------|



CHORUS 1  In my mind I'm going to Carolina

|---------2-------|-----------------|-------0---0-----|-0-----0---------|
|---3-------3-----|---3-------3-----|-----------0-----|-0h2-------0-----|
|-----2-------2---|-----0-------0---|---2-----------2-|-------------2---|
|-0-----0-------0-|-------0-------0-|-----2-------2---|-----2---------2-|
|-----------------|-----------------|-0-------0-------|-0-------0-------|
|-----------------|-3-------0-------|-----------------|-----------------|

CHORUS 2  Can't you see the sunshine, can't you just feel the moonshine?

|---------------0-|-----------------|---------------0-|-----------------|
|-------3---------|-------2-X-X-----|-------3---------|-----0h2-X-X-----|
|-----0-----0-----|-----2-------2-X-|-----0-----0-----|-------------2-X-|
|---0---------0---|---2-------------|---2---------2---|---2-------------|
|-----------------|-0---------------|-----------------|-0---------------|
|-3-------3-------|-----------------|-0-------0-------|-----------------|

CHORUS 3  Ain't it just like a friend of mine, to hit me from behind?

|-0h2-------------|-----------------|-----------------|---0-------------|
|-------3---3---3-|---3---3---3---0-|-0-X-------3-----|-------3-X-X-X-X-|
|-----2-------0---|-----0-------0---|-------2-------1-|-----------------|
|-0---------------|-----------------|-----0-------0---|-----0-----------|
|---------4-------|-2-------0-------|-----------------|-----------------|
|-----------------|-----------------|-3-X-----2-------|-0---------------|

CHORUS 4  And I'm going to Carolina in my mind

|-0h2-------------|---0-------------|-------------0---|-0h2---2---------|
|-------3-------3-|-----3-------3---|-------3-------3-|-----------3---3-|
|-----2-------2---|-------0-------0-|-----2-----0-----|-----2-----------|
|-0---------------|-----------------|-0-X-----0-------|-0-------0-------|
|---------0h2-----|---------0-X-----|-----------------|-------------2---|
|-----------------|-0---------------|-----------------|-----------------|



VERSE 1B  Dark and silent late last night, I think I might have heard the highway calling
|---------2-------|---------0-x-----|-----------------|---------0-X-----|
|---3-------3-----|-----------------|-0-X-2-X-3-X-0-X-|-2-X-3-X---------|
|-----2-------2---|---0-----------0-|-----------------|-2-X-2-X---------|
|-0-----0-------0-|-----2-------2---|-----------------|-----------------|
|-----------------|-3-----3---------|-----0-X-2-X-----|-0-X---------1-X-|
|-----------------|-----------------|-3-X---------3-X-|-----------------|


VERSE 2B  Geese in flight and dogs that bite.
  Bm                G                 A                 A
|-----------------|---------------0-|-------0---0-----|-0-0-------0-----|
|-------3---------|-------3---------|-----------0-----|-0-2p0-------0---|
|-----------4-----|-----0-----0-----|---2-----------2-|-------2-------2-|
|-----4-------4---|---0-------------|-----2-------2---|-----------------|
|-2-X-----2-----2-|-----------------|-0-------0-------|-0-------0-------|
|-----------------|-3-------3---3---|-----------------|-----------------|


VERSE 3  And signs that might be omens say I'm going, going 
  G                 D/F#              B                 Asus
|-----------------|-----------------|-----------------|-----------------|
|-------3---------|-------3---------|-----3-------3---|---3---2-----2h3-|
|-----0-----0-----|---2-------2---2-|---2---1-------1-|-----0-----------|
|---0-----------0-|-----0-------0---|-----------------|-----------------|
|-----------------|-----------------|-2---------------|-0-------0-X-----|
|-3-------3---3---|-2-------2-------|---------0-X-----|-----------------|

VERSE 4B  I'm gone to Carolina in my mind.

|-0h2-------------|---0-------------|-------------0---|-0h2---2---------|
|-------3-------3-|-----3-------3---|-------3-------3-|-----------3---3-|
|-----2-------2---|-------0-------0-|-----2-----0-----|-----2-----------|
|-0---------------|-----------------|-0-X-----0-------|-0-------0-------|
|---------0h2-----|---------0-X-----|-----------------|-------------2---|
|-----------------|-0---------------|-----------------|-----------------|



BRIDGE 1  It's with a holy host of others standing round me, 
  G                 A                 Bm        
|---------------3-|---------------0-|-------2---2-----|-2-----2---------|
|-------3---------|-------2---------|-----------2-----|-2h3-------------|
|-----0-----0-----|-----2-----2-----|---------------4-|-----4-----4---4-|
|---0---------0---|---2---------2---|-----4-------4---|-------------4---|
|-----------------|-0-------0-------|-2-X-----2-------|-2-------2-------|
|-3-------3-------|-----------------|-----------------|-----------------|

BRIDGE 2  Still I'm on the dark side of the moon,
  F#m               Em         (F#)   G                 A          (B)
|-----------------|-----------------|---------------0-|-------0---------|
|-------2---------|-------0---------|-0-X-------3-----|-----2-----------|
|-------2---2-----|-------0-----2-X-|-------0---------|---2-------2---2-|
|-----4-------4---|-----2-----0-----|-----0-----------|-----------------|
|-----------------|-----------------|-----------------|-0-------0---2---|
|-2-X-----2-----2-|-0-X-----0---2-X-|-3-X-----3---3---|-----------------|

BRIDGE 3  And it looks like it goes on like this forever, 
  C                 G                 D
|-------0---------|-------3---------|-------2---0-----|-0h2---2---------|
|-----1-----1-----|-----0-----0-----|-----3-------3---|-----------3-----|
|---0-----------0-|---0-----------0-|---2-----------2-|-----2-------2---|
|-----------------|-----------------|-0-------0-------|-0-------0-----0-|
|-3-------3---3---|-----------------|-----------------|-----------------|
|-----------------|-3-------3---3---|-----------------|-----------------|

BRIDGE 4  You must forgive me
  Cadd9             B/G             
|---------------0-|---------------0-|---------------5-|-----------------|
|-------3---------|-------3---------|-------3---------|-----------------|
|-----0-----0-----|-----0-----0-----|-----0-------0---|-----------------|
|---2---------2---|-------------0---|---4-------4-----|-----------------|
|-3-------3-------|-0h2-----2-------|-----------------|-0-X-X-X-X-X-X-X-|
|-----------------|-----------------|-0-------0-------|-----------------|

BRIDGE 5 If I am going to Carolina in my mind

|-0h2-------------|---0-------------|-------------0---|-0h2---2---------|
|-------3-------3-|-----3-------3---|-------3-------3-|-----------3---3-|
|-----2-------2---|-------0-------0-|-----2-----0-----|-----2-----------|
|-0---------------|-----------------|-0-X-----0-------|-0-------0-------|
|---------0h2-----|---------0-X-----|-----------------|-------------2---|
|-----------------|-0---------------|-----------------|-----------------|



CHORUS 1  In my mind I'm going to Carolina

|---------2-------|-----------------|-------0---0-----|-0-----0---------|
|---3-------3-----|---3-------3-----|-----------0-----|-0h2-------0-----|
|-----2-------2---|-----0-------0---|---2-----------2-|-------------2---|
|-0-----0-------0-|-------0-------0-|-----2-------2---|-----2---------2-|
|-----------------|-----------------|-0-------0-------|-0-------0-------|
|-----------------|-3-------0-------|-----------------|-----------------|

CHORUS 2  Can't you see the sunshine, can't you just feel the moonshine?

|---------------0-|-----------------|---------------0-|-----------------|
|-------3---------|-------2-X-X-----|-------3---------|-----0h2-X-X-----|
|-----0-----0-----|-----2-------2-X-|-----0-----0-----|-------------2-X-|
|---0---------0---|---2-------------|---2---------2---|---2-------------|
|-----------------|-0---------------|-----------------|-0---------------|
|-3-------3-------|-----------------|-0-------0-------|-----------------|

CHORUS 3  Ain't it just like a friend of mine, to hit me from behind?

|-0h2-------------|-----------------|-----------------|---0-------------|
|-------3---3---3-|---3---3---3---0-|-0-X-------3-----|-------3-X-X-X-X-|
|-----2-------0---|-----0-------0---|-------2-------1-|-----------------|
|-0---------------|-----------------|-----0-------0---|-----0-----------|
|---------4-------|-2-------0-------|-----------------|-----------------|
|-----------------|-----------------|-3-X-----2-------|-0---------------|

CHORUS 4  And I'm going to Carolina in my mind

|-0h2-------------|---0-------------|-------------0---|-0h2---2---------|
|-------3-------3-|-----3-------3---|-------3-------3-|-----------3---3-|
|-----2-------2---|-------0-------0-|-----2-----0-----|-----2-----------|
|-0---------------|-----------------|-0-X-----0-------|-0-------0-------|
|---------0h2-----|---------0-X-----|-----------------|-------------2---|
|-----------------|-0---------------|-----------------|-----------------|

OUTRO 1

|-----------------|-----------------|-----------------|---0-------------|
|---3---3---3---3-|---3---3---3---0-|-0-X-------3-----|-------3-X-X-X-X-|
|-----2-------0---|-----0-------0---|-------2-------1-|-----------------|
|-0---------------|-----------------|-----0-------0---|-----0-----------|
|---------4-------|-2-------0-------|-----------------|-----------------|
|-----------------|-----------------|-3-X-----2-------|-0---------------|

OUTRO 2  I'm going to Carolina in my mind

|-0h2-------------|---0-------------|-------------0---|-0h2---2-------2-|
|-------3-------3-|-----3-------3---|-------3-------3-|-----------3---3-|
|-----2-------2---|-------0-------0-|-----2-----0-----|-----2-------2-2-|
|-0---------------|-----------------|-0-X-----0-------|-0-------0-----0-|
|---------0h2-----|---------0-X-----|-----------------|-----------------|
|-----------------|-0---------------|-----------------|-----------------|

            
            
Suggest correction
Creating personal tab
Creating personal tab
You can edit any tab online and save it as your Personal.

You can edit, replace or remove any tab part or add personal notes – all changes will be seen only by you.

Personal tabs can be accessed anytime from any device, even offline.
Learn more »
Give kudos to tab author, rate the tab!
1 2 3 4 5
comments
print report bad tab
guest
Wanna post a correction for this tab? Suggest correction