Oops, an error
Loading. Please wait.

Believing In Things That Cant Be Done tab

by Jamie T
165 views 1 this week
no commentswrite comment
1 2 3 4 5
2 more votes to show rating
add to favorites
×
Save as Personal and add changes to this tab that will be seen only by you. Learn more ›
×
You can save this tab as Personal to edit and correct it or add notes. All changes will be seen only by you. Learn more »
launch autoscroll
font size
0
reset
how to read this tab
guitar tuner
edit
Autoscroll
slow
fast
+/-
esc
set tempo
stop
Author
-------------------------------------------------------------------------------
             Believing In Things That Can't Be Done - Jamie T
-------------------------------------------------------------------------------
Tabbed by: Danw2789


Tuning: EADGCe Tuning


This tab will be in "EADGCe" tuning, but if you want to use standard tuning, just play a fret up on your
B string. I just find it easier to tune the B string into C and play power chord patterns.

Like a lot of Jamie's stuff, the main tunes aren't always played on guitar but I'm just gonna show you what
the notes are for each part

Intro- this can be played as normal power chords but it sounds better if you miss the middle string

This part is played whenever the kid is saying "People will always call you young, believing in things 
that can't be done"


e|---------------------------------------------------------------------------|       
C|--12-12-12-12-12-12-12-12-10-10-10-10-10-10-10-10--8-8-8-8-8-8-8-3-3-10-10-|        
G|---------------------------------------------------------------------------|        
D|--10-10-10-10-10-10-10-10--8--8--8--8--8--8--8--8--6-6-6-6-6-6-6-1-1-8--8--|        
A|---------------------------------------------------------------------------|        
E|---------------------------------------------------------------------------|        
                                                                                 
e|---------------------------------------------------------------------------|        
C|-10-10-10-10-10------------------------------------------------------------|
G|---------------------------------------------------------------------------|  
D|-8--8--8--8--8-------------------------------------------------------------|
A|---------------------------------------------------------------------------|
E|---------------------------------------------------------------------------|

Verse- this is played on piano in the song

e|---------------------------------------------------------------------------|
C|---------------------------------------------------------------------------|
G|---------------------------------------------------------------------------|
D|---10-11-10-6----10-11-10-6---10-11-10-6-13--------------------------------|
A|---------------------------------------------------------------------------|
E|---------------------------------------------------------------------------|

Outro- distorted guitar

e|---------------------------------------------------------------------------|
C|---------------------------------------------------------------------------|
G|---------------------------------------------------------------------------|
D|---------------------------------------------------------------------------|
A|--11-11-11-11-11-11-11-11-9-9-9-9-9-9-9-9-8-8-8-8-8-8-8-8-7-7-7-7-7-7-9-9--|
E|---------------------------------------------------------------------------|

e|---------------------------------------------------------------------------|
C|---------------------------------------------------------------------------|
G|---------------------------------------------------------------------------|
D|---------------------------------------------------------------------------|
A|-11-11-11-11-11-11-11-11-9-9-9-9-9-9-9-9-8-8-8-8-8-8-8-8-------------------|
E|-----------------------------------------------------------x-0-0-----------|
                                           "I like saying.......... fuck em"



************************************

| /   slide up
| \   slide down
| h   hammer-on
| p   pull-off
| ~   vibrato
| +   harmonic
| x   Mute note
| b   Bend
| pb  Pre-bend
| br  Bend release
| pbr Pre-bend release
| brb Bend release bend

************************************

            
            
Suggest correction
Creating personal tab
Creating personal tab
You can edit any tab online and save it as your Personal.

You can edit, replace or remove any tab part or add personal notes – all changes will be seen only by you.

Personal tabs can be accessed anytime from any device, even offline.
Learn more »
Give kudos to tab author, rate the tab!
1 2 3 4 5
comments
print report bad tab
guest
You may want to rate the tab now too:
select rating
Wanna post a correction for this tab? Suggest correction