Oops, an error
Loading. Please wait.

Brand New Bass Guitar bass

by Jamie T
18,495 views 12 this week
3 commentsread comments
1 2 3 4 5
x 10
add to favorites
×
Save as Personal and add changes to this tab that will be seen only by you. Learn more ›
×
You can save this tab as Personal to edit and correct it or add notes. All changes will be seen only by you. Learn more »
launch autoscroll
font size
0
reset
guitar tuner
edit
Autoscroll
slow
fast
+/-
esc
set tempo
stop
Author
Brand New Bass Guitar - Jamie T


the lyrics arent all there and arent in the exact place
but i thought it would help
 

intro:
G|-2-4-2-4-2-4-2-4-2-4-2-4--------|
D|-0-0-0-0-0-0-0-0-0-0-0-0-3-2-0--|  x4    
A|--------------------------------|
E|--------------------------------|

Well i, i went to buy myself a handgun..
G|-2--------7----5----|
D|-0--------5----3----|  X3
A|--------------------|
E|--------------------|

              But i spent all my money on this cracked out piece of shit..
G|-2--------7-stop---|
D|-0--------5--------|   
A|-------------------|
E|-------------------|

                          Well here we go...
G|-2-4-2-4-2-4-2-4-2-4-2-4--------|
D|-0-0-0-0-0-0-0-0-0-0-0-0-3-2-0--|  x4
A|--------------------------------|
E|--------------------------------|
  We all know what you got to do
G|-5---7-------2------|
D|-3---5---3-2-0------|
A|--------------------|
E|--------------------|

Always just comes down to you
G|-5---7---2-4-2-4-2-4-2-4-2-4-|
D|-3---5---0-0-0-0-0-0-0-0-0-0-|
A|-----------------------------|
E|-----------------------------|
We all know what you got to do man
G|-5---7-------2------|
D|-3---5---3-2-0------|
A|--------------------|
E|--------------------|

Always just comes down to you            Shut that door
G|-5---7---2-4-2-4-2-4-2-4-2-4-2------|
D|-3---5---0-0-0-0-0-0-0-0-0-0-0-stop-|
A|------------------------------------|
E|------------------------------------|
                            Spewing all over the floor..
G|-2-4-2-4-2-4-2-4-2-4-2-4-2------|
D|-0-0-0-0-0-0-0-0-0-0-0-0-0-stop-|  x2
A|--------------------------------|
E|--------------------------------|
 
G|-2-4-2-4-2-4-2-4-2-4-2-4--------|
D|-0-0-0-0-0-0-0-0-0-0-0-0-3-2-0--|  
A|--------------------------------|
E|--------------------------------|

Well i, i went drinking down the bars...
G|-2--------7----5----|
D|-0--------5----3----|  X2
A|--------------------|
E|--------------------|

                  So you better go running star
G|-2-4-2-4-2-4-2-4--7----5--|
D|-0-0-0-0-0-0-0-0--5----3--| 
A|--------------------------|
E|--------------------------|

                Cos right now im not really sure if i can drive for shit but
G|-2-4-2-4-2-4-2-4--7----5---------------------|
D|-0-0-0-0-0-0-0-0--5----3-keep playing longer-| 
A|---------------------------------------------|
E|---------------------------------------------|

                          well here we go...
G|-2-4-2-4-2-4-2-4-2-4-2-4--------|
D|-0-0-0-0-0-0-0-0-0-0-0-0-3-2-0--|  x4
A|--------------------------------|
E|--------------------------------|

pause
             
G|-7-5-7-5-7-5/10--7-5-7-5-7-5-4h5p4-2--|
D|-0-0-0-0-0-0-0---0-0-0-0-0-0-0-0-0-0--|  x2
A|--------------------------------------|
E|--------------------------------------|


| /  slide up
| h  hammer-on
| p  pull-off


its not 100% like the album version but its close enough

DavexxX

            
            
Suggest correction
Creating personal tab
Creating personal tab
You can edit any tab online and save it as your Personal.

You can edit, replace or remove any tab part or add personal notes – all changes will be seen only by you.

Personal tabs can be accessed anytime from any device, even offline.
Learn more »
comments
print report bad tab
3 comments total.
0 reply
bassist792 81 Sep 07, 2007 10:23 AM

Finally, great tab thanks

0 reply
twiggy118 10 Sep 16, 2007 07:54 AM

good tab!
could you have a go at back in the game i have been trying to work it out from videos but i cant do it,
cheers

0 reply
majovo 36 Oct 05, 2015 07:39 AM

great tab man. One addition though, sometimes he goes like

|2-4-2-4-5-4-2-4-2-4-2-4--------
|0-0-0-0-0-0-0-0-0-0-0-0-0-3-2-0
|------------------------------
|-------------------------------

guest
You may want to rate the tab now too:
select rating
Wanna post a correction for this tab? Suggest correction