Oops, an error
Loading. Please wait.

Sheila Acoustic bass

version 3
version 3

Whole song

Interactive

by Jamie T
918 views 1 this week
no commentswrite comment
1 2 3 4 5
1 last vote to show rating
add to favorites
×
Save as Personal and add changes to this tab that will be seen only by you. Learn more ›
×
You can save this tab as Personal to edit and correct it or add notes. All changes will be seen only by you. Learn more »
launch autoscroll
font size
0
reset
guitar tuner
edit
Autoscroll
slow
fast
+/-
esc
set tempo
stop
Author
Difficulty
-------------------------------------------------------------------------------
                            Sheila acoustic  - Jamie T
                           https://youtu.be/GDvVyx7xn_0
-------------------------------------------------------------------------------
Tabbed by:James Forshaw 
E-mail:james-forshaw@hotmail.com 

Tuning:

Intro

G|----12-|
D|----12-| x8
A|10-----|
E|-------|

Sheila goes out with her mate Stella...
      G|12---12---12---9----|
(0:03)D|--------------------| x2
      A|10------------------|
      E|-----12---10---7----|

I guess the carpet weren't rolled out...
      G|----12-12-----12/14------12-12----12/14------12-12------12\9------9-9-------9-9-9---|
(0:25)D|----12-12-----12/14------12-12----12/14------12-12------12\9------9-9-------9-9-9---| x2
      A|10--------10------------------------------------------------------------------------|
      E|---------------------12-------12---------10---------10---------7---------7----------|
  

That is basically it! 
Jamie then alternates between the chord patterns,plucking and strumming. 
Watch the video to see the rhythm and order. 


    
first tab so apologies if it is a little bit out, improvements welcome :)



| /  slide up
| \  slide down
| h  hammer-on
| p  pull-off
| ~  vibrato
| +  harmonic
| x  Mute note
===============================================================================

            
            
Suggest correction
Creating personal tab
Creating personal tab
You can edit any tab online and save it as your Personal.

You can edit, replace or remove any tab part or add personal notes – all changes will be seen only by you.

Personal tabs can be accessed anytime from any device, even offline.
Learn more »
Give kudos to tab author, rate the tab!
1 2 3 4 5
comments
print report bad tab
guest
You may want to rate the tab now too:
select rating
Wanna post a correction for this tab? Suggest correction