Oops, an error
Loading. Please wait.

St Christopher tab

by Jamie T
8,330 views 3 this week
3 commentsread comments
1 2 3 4 5
x 11
add to favorites
×
Save as Personal and add changes to this tab that will be seen only by you. Learn more ›
×
You can save this tab as Personal to edit and correct it or add notes. All changes will be seen only by you. Learn more »
launch autoscroll
font size
0
reset
how to read this tab
guitar tuner
edit
Autoscroll
slow
fast
+/-
esc
set tempo
stop
Jamie T - St. Christopher

(Verse):
E---------------------------------------------------------------------------|
B---------------------------------------------------------------------------|
G-----7-----7---7/6------6-----6---6--------2-----2---2-----2-----2---2-----|
D---------------------------------------------------------------------------|
A---------------------------------------------------------------------------|
E-5-5---5-5--5------5-5----5-5---5------2-2---2-2---2---2-2---2-2---2-------|

(Bridge):
E---------------------------------------------------------------------------|
B---------------------------------------------------------------------------|
G-----4-----4---4-------2-----2---2------2-----2---2------------------------|
D---------------------------------------------------------------------------|
A---------------------------------------------------------------------------|
E-3-3---3-3---3---3/2-2---2-2---2----2-2---2-2---2--------------------------|

Seems like a heavy load
Anti-depressants lessen episodes
While the West End boys in their hand-me-down clothes
Brag about fights under her street lights
She walks alone the long way home
And oh she's a troubled soul
Oh so troubled but nobody knows.

Looks like his armour's old
Carrying chinks that his father used to own
And when he hits the bottle it definitely shows
He's a Machiavellian in a rebellion
I wish I could see how it would so follow
And oh he's a terrible state
Oh so terrible, drowning in hate.

(Chorus):
E---------------------------------------------------------------------------|
B---------------------------------------------------------------------------|
G-----7-----7---7-----7-----7---7-------9-----9---9-----9-----9---9---------|
D---------------------------------------------------------------------------|
A---------------------------------------------------------------------------|
E-7-7---7-7---7---7-7---7-7---7---7/9-9---9-9---9---9-9---9-9---9-----------|

E-----------------------------------------------------------------------------|
B-----------------------------------------------------------------------------|
G-------7-------7----7-------7-------7----7------6-----6---6---6---4---4---4--|
D-----------------------------------------------------------------------------|
A--------------------------------------------7-7---7-7---7---7---7---7---7----|
E-10-10---10-10---10---10-10---10-10---10-------------------------------------|

End on (Just before he says 'As long as St. Christopher's here)*:
E---------------------------------------------------------------------------|
B---------------------------------------------------------------------------|
G--9------------------------------------------------------------------------|
D---------------------------------------------------------------------------|
A--7------------------------------------------------------------------------|
E---------------------------------------------------------------------------|

But oh when you see him
He's smiling at the ceiling
And telling you he's never growing old

And oh when you see her
She smiles when you greet her
And tells you that she's never alone*

E---------------------------------------------------------------------------|
B---------------------------------------------------------------------------|
G-----2-----2---2------2-----2---2-----2-----2---2--------------------------|
D---------------------------------------------------------------------------|
A---------------------------------------------------------------------------|
E-2-2---2-2---2----4-4---4-4---4---5-5---5-5---5---5------------------------|

As long as St. Christopher's here (x4)

(Verse):
While a young professional city square mile
Worried for the first time in quite a while
She smirks then cursed let the bourgeois burn
More concerned with a friend who is wild
Encouraged by guys I don't trust
And I say leave 'em alone or I'll visit your home
Uh oh he's a loveable rogue
We'll all be responsible when he goes

(Chorus):
But oh when you see him
He's smiling at the ceiling
And telling you he's never growing old

And oh when you see her
She smiles when you greet her
And tells you that she's never alone

As long as St. Christopher's here (x4)
-----------------------------------------------------
Enjoy!

            
            
Suggest correction
Creating personal tab
Creating personal tab
You can edit any tab online and save it as your Personal.

You can edit, replace or remove any tab part or add personal notes – all changes will be seen only by you.

Personal tabs can be accessed anytime from any device, even offline.
Learn more »
comments
print report bad tab
3 comments total.
+1 reply
amg93 59 Sep 11, 2009 11:02 AM

Agree with it all except on the chorus at the end i think its an A (5th fret) on the e string instead of an A# (6th fret). Otherwise very good

+1 reply
IAmAzerrad 10 Sep 14, 2009 04:32 AM

You're right mate, I've got no idea why I put 6th fret when I knew full well it was supposed to be on the 5th!
I'll edit it if I can work out how to...

+2 reply
IAmAzerrad 10 Sep 14, 2009 04:36 AM

E---------------------------------------------------------------------
B---------------------------------------------------------------------
G-----2-----2---2------2-----2---2-----2-----2---2--------------------
D---------------------------------------------------------------------
A---------------------------------------------------------------------
E-2-2---2-2---2----4-4---4-4---4---5-5---5-5---5----------------------

guest
Wanna post a correction for this tab? Suggest correction