Oops, an error
Loading. Please wait.

A Slave A Son tab

58 views 1 this week
no commentswrite comment
1 2 3 4 5
2 more votes to show rating
add to favorites
×
Save as Personal and add changes to this tab that will be seen only by you. Learn more ›
×
You can save this tab as Personal to edit and correct it or add notes. All changes will be seen only by you. Learn more »
launch autoscroll
font size
0
reset
how to read this tab
guitar tuner
edit
Autoscroll
slow
fast
+/-
esc
set tempo
stop
About this tab version
This version was made mostly by ear and so some parts don't fully line up with the recording where it's difficult to hear what's going on but it should be clear that the tab is mostly correct. Was this info helpful? Yes No
VERSE 1

Guitar 1 lead:
e|--------------------------------|--------------------------------|
B|--------------------------------|--------------------------------|
G|--------------------------------|--------------------------------|
D|7-0-----------------------------|7-0-----------------------------|
A|----7-0-5/8-0-------------------|----7-0-5/8-0-------------------|
D|--------------8---8-8-8-5-5-5-5-|--------------8---8-8-8-0-0-0-0-| x4

Guitar 2 harmony:
e|---------------------------------|---------------------------------|
B|---------------------------------|---------------------------------|
G|---------------------------------|---------------------------------|
D|10-0-----------------------------|10-0-----------------------------|
A|-----7-0-5/8-0-------------------|-----7-0-5/8-0-------------------|
D|---------------8---8-8-8-5-5-5-5-|---------------8---8-8-8-0-0-0-0-|

PRE-CHORUS

Guitar 1 riff:
e|--------------------------------------|---------------------------------------|
B|---------------------------10-10-10---|---------------------------------------|
G|---------------------------10-10-10---|---------------------------x-x-x-x-x---|
D|---------------------------7--7--7----|---------------------------x-x-x-x-x---|
A|---------------------------8--8--8----|---------------------------x-x-x-x-x---|
D|-8-0-0-3/5-0-8-0-0-3/5-0-0----------0-|-8-0-0-3/5-0-8-0-0-3/5-0-0-x-x-x-x-x---|

e|--------------------------------------|-----------------------------------|
B|---------------------------10-10-10---|-----------------------------------|
G|---------------------------10-10-10---|-----------------------------------|
D|---------------------------7--7--7----|-----------------------------------|
A|---------------------------8--8--8----|-----------------------------------|
D|-8-0-0-3/5-0-8-0-0-3/5-0-0----------0-|-8-0-0-3/5-0-8-0-0-3/5-0-0-0-0-0-0-|

CHORUS:

Guitar 1 lead:
e|------------------------------------------|-----------------------------------------|
B|------------------------------------------|-----------------------------------------|
G|------------------------------------------|-----------------------------------------|
D|15-0-14-0-12h14-0-15-0-0-14-0-12h14-14-14-||15-0-14-0-12h14-0-15-0-0-14-0-12h14-14~-|
A|------------------------------------------|-----------------------------------------|
D|------------------------------------------|-----------------------------------------|

e|--------------------------------|--------------------------------|
B|--------------------------------|--------------------------------|
G|--------------------------------|--------------------------------|
D|7-0-----------------------------|7-0-----------------------------|
A|----7-0-5/8-0-------------------|----7-0-5/8-0-------------------|
D|--------------8---8-8-8-5-5-5-5-|--------------8---8-8-8-0-0-0-0-|

e|------------------------------------------|----------------------------------------|
B|------------------------------------------|----------------------------------------|
G|------------------------------------------|----------------------------------------|
D|15-0-14-0-12h14-0-15-0-0-14-0-12h14-14-14-|15-0-14-0-12h14-0-15-0-0-14-0-12h14-14~-|
A|------------------------------------------|----------------------------------------|
D|------------------------------------------|----------------------------------------|

e|--------------------------------|--------------------------------|
B|--------------------------------|--------------------------------|
G|--------------------------------|--------------------------------|
D|3---3---3---3---3---3---3---3---|5---5---5---5---5---5---5---5---|
A|3---3---3---3---3---3---3---3---|5---5---5---5---5---5---5---5---|
D|3---3---3---3---3---3---3---3---|5---5---5---5---5---5---5---5---|

Guitar 2 harmony part:
e|------------------------------------------|------------------------------------------|
B|------------------------------------------|------------------------------------------|
G|------------------------------------------|------------------------------------------|
D|19-0-17-0-15h17-0-19-0-0-17-0-15h17-17-17-|19-0-17-0-15h17-0-19-0-0-17-0-15h17-17-17-|
A|------------------------------------------|------------------------------------------|
D|------------------------------------------|------------------------------------------|

VERSE 2

Guitar 1 lead:
e|12-------------12-------------12--------|10-----------10-----------10-------|
B|-----10-------------10-------------10---|-----8------------8------------8---|
G|----------10-------------10-------------|---------7------------7------------|
D|----------------------------------------|-----------------------------------|
A|----------------------------------------|-----------------------------------|
D|----------------------------------------|-----------------------------------|

e|10-----------10-----------10-------|13-------------13-------------13--------|
B|-----8------------8------------8---|-----11-------------11-------------11---|
G|---------7------------7------------|----------12-------------12-------------|
D|-----------------------------------|----------------------------------------|
A|-----------------------------------|----------------------------------------|
D|-----------------------------------|----------------------------------------| x2

Guitar 2 rhythm:
e|--------------------------------|--------------------------------|
B|--------------------------------|--------------------------------|
G|--------------------------------|--------------------------------|
D|0-------------------------------|--------------------------------|
A|0-------------------------------|--------------------------------|
D|0-------------------------------|--------------------------------|

e|--------------------------------|--------------------------------|
B|--------------------------------|--------------------------------|
G|--------------------------------|--------------------------------|
D|8-------------------------------|--------------------------------|
A|8-------------------------------|--------------------------------|
D|8-------------------------------|--------------------------------|

PRE-CHORUS

Guitar 1 riff:
e|--------------------------------------|---------------------------------------|
B|---------------------------10-10-10---|---------------------------------------|
G|---------------------------10-10-10---|---------------------------x-x-x-x-x---|
D|---------------------------7--7--7----|---------------------------x-x-x-x-x---|
A|---------------------------8--8--8----|---------------------------x-x-x-x-x---|
D|-8-0-0-3/5-0-8-0-0-3/5-0-0----------0-|-8-0-0-3/5-0-8-0-0-3/5-0-0-x-x-x-x-x---|

e|--------------------------------------|-----------------------------------|
B|---------------------------10-10-10---|-----------------------------------|
G|---------------------------10-10-10---|-----------------------------------|
D|---------------------------7--7--7----|-----------------------------------|
A|---------------------------8--8--8----|-----------------------------------|
D|-8-0-0-3/5-0-8-0-0-3/5-0-0----------0-|-8-0-0-3/5-0-8-0-0-3/5-0-0-0-0-0-0-|

CHORUS

Guitar 1 lead:
e|------------------------------------------|-----------------------------------------|
B|------------------------------------------|-----------------------------------------|
G|------------------------------------------|-----------------------------------------|
D|15-0-14-0-12h14-0-15-0-0-14-0-12h14-14-14-||15-0-14-0-12h14-0-15-0-0-14-0-12h14-14~-|
A|------------------------------------------|-----------------------------------------|
D|------------------------------------------|-----------------------------------------|

e|--------------------------------|--------------------------------|
B|--------------------------------|--------------------------------|
G|--------------------------------|--------------------------------|
D|7-0-----------------------------|7-0-----------------------------|
A|----7-0-5/8-0-------------------|----7-0-5/8-0-------------------|
D|--------------8---8-8-8-5-5-5-5-|--------------8---8-8-8-0-0-0-0-|

e|------------------------------------------|----------------------------------------|
B|------------------------------------------|----------------------------------------|
G|------------------------------------------|----------------------------------------|
D|15-0-14-0-12h14-0-15-0-0-14-0-12h14-14-14-|15-0-14-0-12h14-0-15-0-0-14-0-12h14-14~-|
A|------------------------------------------|----------------------------------------|
D|------------------------------------------|----------------------------------------|

e|--------------------------------|--------------------------------|
B|--------------------------------|--------------------------------|
G|--------------------------------|--------------------------------|
D|3---3---3---3---3---3---3---3---|5---5---5---5---5---5---5---5---|
A|3---3---3---3---3---3---3---3---|5---5---5---5---5---5---5---5---|
D|3---3---3---3---3---3---3---3---|5---5---5---5---5---5---5---5---|

Guitar 2 harmony part:
e|------------------------------------------|------------------------------------------|
B|------------------------------------------|------------------------------------------|
G|------------------------------------------|------------------------------------------|
D|19-0-17-0-15h17-0-19-0-0-17-0-15h17-17-17-|19-0-17-0-15h17-0-19-0-0-17-0-15h17-17-17-|
A|------------------------------------------|------------------------------------------|
D|------------------------------------------|------------------------------------------|

BRIDGE

I'm not going to tab the first 8 bars of this portion in detail. It's an open D chord:
e|---|
B|---|
G|---|
D|-0-|
A|-0-|
D|-0-|
on the downbeat and some pickup beats. Just listen to the song and play accordingly then end with:

Guitar 1 riff:
e|------------------------------------|------------------------------------|
B|------------------------------------|------------------------------------|
G|----14-14-14-14-14-14-14-14-14-14---|----14-14-14-14-14-14-15-15-15-15---|
D|0---x--x--x--x--x--x--x--x--x--x----|0---x--x--x--x--x--x--x--x--x--x----|
A|0---12-12-12-12-12-12-12-12-12-12---|0---12-12-12-12-12-12-14-14-14-14---|
D|0-----------------------------------|0-----------------------------------|

e|------------------------------------|------------------------------------|
B|------------------------------------|------------------------------------|
G|----12-12-12-12-12-12-12-12-12-12---|----12-12-12-12-12-12-14-14-14-14---|
D|0---x--x--x--x--x--x--x--x--x--x----|0---x--x--x--x--x--x--x--x--x--x----|
A|0---10-10-10-10-10-10-10-10-10-10---|0---10-10-10-10-10-10-12-12-12-12---|
D|0-----------------------------------|0-----------------------------------|

SOLO

Guitar 1:
e|------------------------------13-17-13----------|--------------------------------------------|
B|---------------------------15----------15-------|--------------------------------------------|
G|------14-15-14----------14----------------14----|------14-15-14------------------------------|
D|---15----------15----15----------------------15-|---15----------15----15-17-15-14-15-14------|
A|17----------------17----------------------------|17----------------17-------------------15---|
D|------------------------------------------------|--------------------------------------------|

e|------------------------------------|------------------------------------|
B|------------------------------------|------------------------------------|
G|-----7-8-7--------10-8-7-8-7--------|-----7-8-7--------10-8-7-8-7--------|
D|---8-------8----8------------8-10-8-|---8-------8----8------------8-10-8-|
A|10-----------10---------------------|10-----------10---------------------|
D|------------------------------------|------------------------------------|

e|------------------------------13-17-13----------|--------------------------------------------|
B|---------------------------15----------15-------|--------------------------------------------|
G|------14-15-14----------14----------------14----|------14-15-14------------------------------|
D|---15----------15----15----------------------15-|---15----------15----15-17-15-14-15-14------|
A|17----------------17----------------------------|17----------------17-------------------15---|
D|------------------------------------------------|--------------------------------------------|

e|15h17p15-13h15p13-------------------|------------------------------|
B|------------------15h17p15-13h15p13-|------------------------------|
G|------------------------------------|15h17p15-14h15p14----------14~|
D|------------------------------------|-------------------15h17p15---|
A|------------------------------------|------------------------------|
D|------------------------------------|------------------------------|

Guitar 2 final bar harmony:
e|18h20p18-17h18p17-------------------|------------------------------|
B|------------------18h20p18-17h18p17-|------------------------------|
G|------------------------------------|19h21p19-17h19p17----------17~|
D|------------------------------------|------------------19h20p19----|
A|------------------------------------|------------------------------|
D|------------------------------------|------------------------------|

VERSE RIFF

Guitar 1 lead:
e|--------------------------------|--------------------------------|
B|--------------------------------|--------------------------------|
G|--------------------------------|--------------------------------|
D|7-0-----------------------------|7-0-----------------------------|
A|----7-0-5/8-0-------------------|----7-0-5/8-0-------------------|
D|--------------8---8-8-8-5-5-5-5-|--------------8---8-8-8-0-0-0-0-|

CHORUS

Guitar 1 lead:
e|------------------------------------------|-----------------------------------------|
B|------------------------------------------|-----------------------------------------|
G|------------------------------------------|-----------------------------------------|
D|15-0-14-0-12h14-0-15-0-0-14-0-12h14-14-14-||15-0-14-0-12h14-0-15-0-0-14-0-12h14-14~-|
A|------------------------------------------|-----------------------------------------|
D|------------------------------------------|-----------------------------------------|

e|--------------------------------|--------------------------------|
B|--------------------------------|--------------------------------|
G|--------------------------------|--------------------------------|
D|7-0-----------------------------|7-0-----------------------------|
A|----7-0-5/8-0-------------------|----7-0-5/8-0-------------------|
D|--------------8---8-8-8-5-5-5-5-|--------------8---8-8-8-0-0-0-0-|

e|------------------------------------------|----------------------------------------|
B|------------------------------------------|----------------------------------------|
G|------------------------------------------|----------------------------------------|
D|15-0-14-0-12h14-0-15-0-0-14-0-12h14-14-14-|15-0-14-0-12h14-0-15-0-0-14-0-12h14-14~-|
A|------------------------------------------|----------------------------------------|
D|------------------------------------------|----------------------------------------|

e|--------------------------------|--------------------------------|
B|--------------------------------|--------------------------------|
G|--------------------------------|--------------------------------|
D|3---3---3---3---3---3---3---3---|5---5---5---5---5---5---5---5---|
A|3---3---3---3---3---3---3---3---|5---5---5---5---5---5---5---5---|
D|3---3---3---3---3---3---3---3---|5---5---5---5---5---5---5---5---|

Guitar 2 harmony part:
e|------------------------------------------|------------------------------------------|
B|------------------------------------------|------------------------------------------|
G|------------------------------------------|------------------------------------------|
D|19-0-17-0-15h17-0-19-0-0-17-0-15h17-17-17-|19-0-17-0-15h17-0-19-0-0-17-0-15h17-17-17-|
A|------------------------------------------|------------------------------------------|
D|------------------------------------------|------------------------------------------|

VERSE

Guitar 1 lead:
e|--------------------------------|--------------------------------|
B|--------------------------------|--------------------------------|
G|--------------------------------|--------------------------------|
D|7-0-----------------------------|7-0-----------------------------|
A|----7-0-5/8-0-------------------|----7-0-5/8-0-------------------|
D|--------------8---8-8-8-5-5-5-5-|--------------8---8-8-8-0-0-0-0-| x2

Guitar 2 harmony:
e|---------------------------------|---------------------------------|
B|---------------------------------|---------------------------------|
G|---------------------------------|---------------------------------|
D|10-0-----------------------------|10-0-----------------------------|
A|-----7-0-5/8-0-------------------|-----7-0-5/8-0-------------------|
D|---------------8---8-8-8-5-5-5-5-|---------------8---8-8-8-0-0-0-0-|


**********************************************************************

| ~   pinch harmonic
| h   hammer on
| p   pull off
| /   slide
| x   dead note

**********************************************************************

            
            
Suggest correction
Creating personal tab
Creating personal tab
You can edit any tab online and save it as your Personal.

You can edit, replace or remove any tab part or add personal notes – all changes will be seen only by you.

Personal tabs can be accessed anytime from any device, even offline.
Learn more »
Give kudos to tab author, rate the tab!
1 2 3 4 5
comments
print report bad tab
guest
You may want to rate the tab now too:
select rating
Wanna post a correction for this tab? Suggest correction