Oops, an error
Loading. Please wait.

Cloud 9 bass

version 2
version 2

Whole song

  • Tricky staccato rhythms in this song, and the chor... Show more
  • Standard tuning as originally requested, 5-string ... Show more
712 views 15 this week
no commentswrite comment
1 2 3 4 5
1 last vote to show rating
add to favorites
×
Save as Personal and add changes to this tab that will be seen only by you. Learn more ›
×
You can save this tab as Personal to edit and correct it or add notes. All changes will be seen only by you. Learn more »
launch autoscroll
font size
0
reset
guitar tuner
edit
Autoscroll
slow
fast
+/-
esc
set tempo
stop
Author
Difficulty
About this tab version
Standard tuning as originally requested, 5-string version, timing and articulated parts written out fully, corrected notes. Was this info helpful? Yes No
ORDER: I V1 PC1 C1 V2 PC2 C2 INT PsC B O


[INTRO]

(8 measures tacet)


[VERSE 1] (0:17)

G|----------------------------------|---------------------------------|
D|----------------------------------|-------5h7-----------------------|
A|----------------------------------|---------------5h7---------------|
E|-5-------------3h5-------------3h-|-5-------------------------------|
B|----------------------------------|---------------------------------|
   1 e + a 2 e + a 3 e + a 4 e + a    1 e + a 2 e + a 3 e + a 4 e + a

G|----------------------------------|---------------------------------|
D|----------------------------------|-------5h7-----------------------|
A|----------------------------------|---------------5h7---------------|
E|-5-------------3h5-------------3h-|-5-------------------0-----0-----|
B|----------------------------------|---------------------------------|
   1 e + a 2 e + a 3 e + a 4 e + a    1 e + a 2 e + a 3 e + a 4 e + a

G|----------------------------------|---------------------------------|
D|----------------------------------|-------5h7-----------------------|
A|----------------------------------|---------------5h7---------------|
E|-5-------------3h5-------------3h-|-5-------------------------------|
B|----------------------------------|---------------------------------|
   1 e + a 2 e + a 3 e + a 4 e + a    1 e + a 2 e + a 3 e + a 4 e + a

G|----------------------------------|---------------------------------|
D|----------------------------------|-----5h7-------------------------|
A|----------------------------------|-----------------5h7-------------|
E|-5-------------3h5-------------3h-|-5-------------------0-0---0-3---|
B|----------------------------------|---------------------------------|
   1 e + a 2 e + a 3 e + a 4 e + a    1 e + a 2 e + a 3 e + a 4 e + a
                                                          m     m


[PRE-CHORUS 1] (0:34)

G|----------------------------------|---------------------------------|
D|----------------------------------|-------5h7-----------------------|
A|----------------------------------|---------------5h7---------------|
E|-5-------------3h5-------------3h-|-5-------------------------------|
B|----------------------------------|---------------------------------|
   1 e + a 2 e + a 3 e + a 4 e + a    1 e + a 2 e + a 3 e + a 4 e + a

G|----------------------------------|---------------------------------|
D|----------------------------------|-------5h7-----------------------|
A|----------------------------------|---------------------5h7---------|
E|-5-------------3h5-------------3h-|-5-------------------------0-0---|
B|----------------------------------|---------------------------------|
   1 e + a 2 e + a 3 e + a 4 e + a    1 e + a 2 e + a 3 e + a 4 e + a

G|----------------------------------|---------------------------------|
D|----------------------------------|-----5h7-------------------------|
A|----------------------------------|---------------------5h7---------|
E|-5-------------3h5-------------3h-|-5-------------------------0-0---|
B|----------------------------------|---------------------------------|
   1 e + a 2 e + a 3 e + a 4 e + a    1 e + a 2 e + a 3 e + a 4 e + a

G|----------------------------------|---------------------------------|
D|----------------------------------|---------------------------------|
A|----------------------------------|---------------------------------|
E|-5-------------3h5----------------|---------------------------------|
B|----------------------------------|---------------------------------|
   1 e + a 2 e + a 3 e + a 4 e + a    1 e + a 2 e + a 3 e + a 4 e + a


[CHORUS]

G|---------------------------------|---------------------------------|
D|-------------5h7-----------------|-------------5h7-----------------|
A|---------------------------------|---------------------------------|
E|-5-------------------------------|---------------------------------|
B|---------------------------------|-3-------------------------------|
   1 e + a 2 e + a 3 e + a 4 e + a   1 e + a 2 e + a 3 e + a 4 e + a

G|---------------------------------|---------------------------------|
D|---------------------------------|-------------5h7-----------------|
A|-------------5p3-----------------|---------------------------------|
E|---------------------------------|-5-------------------------------|
B|-6-------------------------------|---------------------------------|
   1 e + a 2 e + a 3 e + a 4 e + a   1 e + a 2 e + a 3 e + a 4 e + a

G|---------------------------------|---------------------------------|
D|-------------5h7-----------------|---------------------------------|
A|---------------------------------|-------------3h5-----------------|
E|-5-------------------------------|---------------------------------|
B|---------------------------------|-3-------------------------------|
   1 e + a 2 e + a 3 e + a 4 e + a   1 e + a 2 e + a 3 e + a 4 e + a

G|---------------------------------|---------------------------------|
D|---------------------------------|-------------5h7-----------------|
A|-------------5p3-----------------|---------------------------------|
E|---------------------------------|-5-------------------------------|
B|-6-------------------------------|---------------------------------|
   1 e + a 2 e + a 3 e + a 4 e + a   1 e + a 2 e + a 3 e + a 4 e + a


G|---------------------------------|---------------------------------|
D|-------------5h7-----------------|-------------5h7-----------------|
A|---------------------------------|---------------------------------|
E|-5-------------------------------|---------------------------------|
B|---------------------------------|-3-------------------------------|
   1 e + a 2 e + a 3 e + a 4 e + a   1 e + a 2 e + a 3 e + a 4 e + a

G|---------------------------------|---------------------------------|
D|---------------------------------|-------------5h7-----------------|
A|-------------5p3-----------------|---------------------------------|
E|---------------------------------|-5-------------------------------|
B|-6-------------------------------|---------------------------------|
   1 e + a 2 e + a 3 e + a 4 e + a   1 e + a 2 e + a 3 e + a 4 e + a

G|---------------------------------|---------------------------------|
D|-------------5h7-----------------|---------------------------------|
A|---------------------------------|-------------3h5-----------------|
E|-5-------------------------------|---------------------------------|
B|---------------------------------|-3-------------------------------|
   1 e + a 2 e + a 3 e + a 4 e + a   1 e + a 2 e + a 3 e + a 4 e + a

G|---------------------------------|
D|---------------------------------|
A|-------------5p3-----------------|
E|---------------------------------|
B|-6-------------------------------|
   1 e + a 2 e + a 3 e + a 4 e + a


[VERSE 2] (1:21)

G|----------------------------------|---------------------------------|
D|----------------------------------|-------5h7-----------------------|
A|----------------------------------|---------------5h7---------------|
E|-5-------------3h5-------------3h-|-5-------------------------------|
B|----------------------------------|---------------------------------|
   1 e + a 2 e + a 3 e + a 4 e + a    1 e + a 2 e + a 3 e + a 4 e + a

G|----------------------------------|---------------------------------|
D|----------------------------------|-------5h7-----------------------|
A|----------------------------------|---------------5h7---------------|
E|-5-------------3h5-------------3h-|-5-------------------0-----0-0---|
B|----------------------------------|---------------------------------|
   1 e + a 2 e + a 3 e + a 4 e + a    1 e + a 2 e + a 3 e + a 4 e + a

G|----------------------------------|---------------------------------|
D|----------------------------------|-------5h7-----------------------|
A|----------------------------------|---------------5h7---------------|
E|-5-------------3h5-------------3h-|-5-------------------------------|
B|----------------------------------|---------------------------------|
   1 e + a 2 e + a 3 e + a 4 e + a    1 e + a 2 e + a 3 e + a 4 e + a

G|----------------------------------|---------------------------------|
D|----------------------------------|-----5h7-------------------------|
A|----------------------------------|-----------------5h7-------------|
E|-5-------------3h5-------------3h-|-5-------------------0-0---0-3---|
B|----------------------------------|---------------------------------|
   1 e + a 2 e + a 3 e + a 4 e + a    1 e + a 2 e + a 3 e + a 4 e + a
                                                          m     m


[PRE-CHORUS 2] (1:38)

G|----------------------------------|---------------------------------|
D|----------------------------------|-------5h7-----------------------|
A|----------------------------------|---------------5h7---------------|
E|-5-------------3h5-------------3h-|-5-------------------------------|
B|----------------------------------|---------------------------------|
   1 e + a 2 e + a 3 e + a 4 e + a    1 e + a 2 e + a 3 e + a 4 e + a

G|----------------------------------|---------------------------------|
D|----------------------------------|-------5h7-----------------------|
A|----------------------------------|---------------------5h7---------|
E|-5-------------3h5-------------3h-|-5-------------------------0-0---|
B|----------------------------------|---------------------------------|
   1 e + a 2 e + a 3 e + a 4 e + a    1 e + a 2 e + a 3 e + a 4 e + a

G|----------------------------------|---------------------------------|
D|----------------------------------|-----5h7-------------------------|
A|----------------------------------|---------------------5h7---------|
E|-5-------------3h5-------------3h-|-5-------------------------0-0---|
B|----------------------------------|---------------------------------|
   1 e + a 2 e + a 3 e + a 4 e + a    1 e + a 2 e + a 3 e + a 4 e + a

G|----------------------------------|---------------------------------|
D|----------------------------------|---------------------------------|
A|----------------------------------|---------------------------------|
E|-5-------------3h5----------------|---------------3-0---------------|
B|----------------------------------|---------------------------------|
   1 e + a 2 e + a 3 e + a 4 e + a    1 e + a 2 e + a 3 e + a 4 e + a


[CHORUS 2]

G|---------------------------------|---------------------------------|
D|-------------5h7-----------------|-------------5h7-----------------|
A|---------------------------------|---------------------------------|
E|-5-------------------------------|---------------------------------|
B|---------------------------------|-3-------------------------------|
   1 e + a 2 e + a 3 e + a 4 e + a   1 e + a 2 e + a 3 e + a 4 e + a

G|---------------------------------|---------------------------------|
D|---------------------------------|-------------5h7-----------------|
A|-------------5p3-----------------|---------------------------------|
E|---------------------------------|-5-------------------------------|
B|-6-------------------------------|---------------------------------|
   1 e + a 2 e + a 3 e + a 4 e + a   1 e + a 2 e + a 3 e + a 4 e + a

G|---------------------------------|---------------------------------|
D|-------------5h7-----------------|---------------------------------|
A|---------------------------------|-------------3h5-----------------|
E|-5-------------------------------|---------------------------------|
B|---------------------------------|-3-------------------------------|
   1 e + a 2 e + a 3 e + a 4 e + a   1 e + a 2 e + a 3 e + a 4 e + a

G|---------------------------------|---------------------------------|
D|---------------------------------|-------------5h7-----------------|
A|-------------5p3-----------------|---------------------------------|
E|---------------------------------|-5-------------------------------|
B|-6-------------------------------|---------------------------------|
   1 e + a 2 e + a 3 e + a 4 e + a   1 e + a 2 e + a 3 e + a 4 e + a


G|---------------------------------|---------------------------------|
D|-------------5h7-----------------|-------------5h7-----------------|
A|---------------------------------|---------------------------------|
E|-5-------------------------------|---------------------------------|
B|---------------------------------|-3-------------------------------|
   1 e + a 2 e + a 3 e + a 4 e + a   1 e + a 2 e + a 3 e + a 4 e + a

G|---------------------------------|---------------------------------|
D|---------------------------------|-------------5h7-----------------|
A|-------------5p3-----------------|---------------------------------|
E|---------------------------------|-5-------------------------------|
B|-6-------------------------------|---------------------------------|
   1 e + a 2 e + a 3 e + a 4 e + a   1 e + a 2 e + a 3 e + a 4 e + a

G|---------------------------------|---------------------------------|
D|-------------5h7-----------------|---------------------------------|
A|---------------------------------|-------------3h5-----------------|
E|-5-------------------------------|---------------------------------|
B|---------------------------------|-3-------------------------------|
   1 e + a 2 e + a 3 e + a 4 e + a   1 e + a 2 e + a 3 e + a 4 e + a

G|---------------------------------|
D|---------------------------------|
A|-------------5p3-----------------|
E|---------------------------------|
B|-6-------------------------------|
   1 e + a 2 e + a 3 e + a 4 e + a


[INTERLUDE 1]

(8 measures tacet)


[POST-CHORUS]

G|----------------------------------|---------------------------------|
D|----------------------------------|-------5h7-----------------------|
A|----------------------------------|---------------5h7---------------|
E|-5-------------3h5-------------3h-|-5-------------------------------|
B|----------------------------------|---------------------------------|
   1 e + a 2 e + a 3 e + a 4 e + a    1 e + a 2 e + a 3 e + a 4 e + a

G|----------------------------------|---------------------------------|
D|----------------------------------|-------5h7-----------------------|
A|----------------------------------|---------------5h7---------------|
E|-5-------------3h5-------------3h-|-5-------------------0-----0-----|
B|----------------------------------|---------------------------------|
   1 e + a 2 e + a 3 e + a 4 e + a    1 e + a 2 e + a 3 e + a 4 e + a

G|----------------------------------|---------------------------------|
D|----------------------------------|-------5h7-----------------------|
A|----------------------------------|---------------5h7---------------|
E|-5-------------3h5-------------3h-|-5-------------------------------|
B|----------------------------------|---------------------------------|
   1 e + a 2 e + a 3 e + a 4 e + a    1 e + a 2 e + a 3 e + a 4 e + a

G|----------------------------------|---------------------------------|
D|----------------------------------|-----5h7-------------------------|
A|----------------------------------|-----------------5h7-------------|
E|-5-------------3h5-------------3h-|-5-------------------0-0---0-3---|
B|----------------------------------|---------------------------------|
   1 e + a 2 e + a 3 e + a 4 e + a    1 e + a 2 e + a 3 e + a 4 e + a
                                                          m     m


[BRIDGE]

G|---------------------------------|---------------------------------|
D|-------------5h7-----------------|---------------------------------|
A|---------------------------------|-------------5p3-----------------|
E|---------------------------------|---------------------------------|
B|-3-------------------------------|-6-------------------------------|
   1 e + a 2 e + a 3 e + a 4 e + a   1 e + a 2 e + a 3 e + a 4 e + a

G|---------------------------------|---------------------------------|
D|-------------5h7-----------------|-------------5h7-----------------|
A|---------------------------------|---------------------------------|
E|-5-------------------------------|-5-------------------------------|
B|---------------------------------|---------------------------------|
   1 e + a 2 e + a 3 e + a 4 e + a   1 e + a 2 e + a 3 e + a 4 e + a

G|---------------------------------|---------------------------------|
D|---------------------------------|---------------------------------|
A|-------------3h5-----------------|-------------5p3-----------------|
E|---------------------------------|---------------------------------|
B|-3-------------------------------|-6-------------------------------|
   1 e + a 2 e + a 3 e + a 4 e + a   1 e + a 2 e + a 3 e + a 4 e + a

G|---------------------------------|---------------------------------|
D|-------------5h7-----------------|-------------5h7-----------------|
A|---------------------------------|---------------------------------|
E|-5-------------------------------|-5-------------------------------|
B|---------------------------------|---------------------------------|
   1 e + a 2 e + a 3 e + a 4 e + a   1 e + a 2 e + a 3 e + a 4 e + a


(first 6 measures of section repeat)

G|---------------------------------|---------------------------------|
D|-------------5h7-----------------|---------------------------------|
A|---------------------------------|-------------5p3-----------------|
E|---------------------------------|---------------------------------|
B|-3-------------------------------|-6-------------------------------|
   1 e + a 2 e + a 3 e + a 4 e + a   1 e + a 2 e + a 3 e + a 4 e + a

G|---------------------------------|---------------------------------|
D|-------------5h7-----------------|-------------5h7-----------------|
A|---------------------------------|---------------------------------|
E|-5-------------------------------|-5-------------------------------|
B|---------------------------------|---------------------------------|
   1 e + a 2 e + a 3 e + a 4 e + a   1 e + a 2 e + a 3 e + a 4 e + a

G|---------------------------------|---------------------------------|
D|---------------------------------|---------------------------------|
A|-------------3h5-----------------|-------------5p3-----------------|
E|---------------------------------|---------------------------------|
B|-3-------------------------------|-6-------------------------------|
   1 e + a 2 e + a 3 e + a 4 e + a   1 e + a 2 e + a 3 e + a 4 e + a


[OUTRO]
(bridge repeated with more synths instead of words; to fade)

G|---------------------------------|---------------------------------|
D|-------------5h7-----------------|---------------------------------|
A|---------------------------------|-------------5p3-----------------|
E|---------------------------------|---------------------------------|
B|-3-------------------------------|-6-------------------------------|
   1 e + a 2 e + a 3 e + a 4 e + a   1 e + a 2 e + a 3 e + a 4 e + a

G|---------------------------------|---------------------------------|
D|-------------5h7-----------------|-------------5h7-----------------|
A|---------------------------------|---------------------------------|
E|-5-------------------------------|-5-------------------------------|
B|---------------------------------|---------------------------------|
   1 e + a 2 e + a 3 e + a 4 e + a   1 e + a 2 e + a 3 e + a 4 e + a

G|---------------------------------|---------------------------------|
D|---------------------------------|---------------------------------|
A|-------------3h5-----------------|-------------5p3-----------------|
E|---------------------------------|---------------------------------|
B|-3-------------------------------|-6-------------------------------|
   1 e + a 2 e + a 3 e + a 4 e + a   1 e + a 2 e + a 3 e + a 4 e + a

G|---------------------------------|---------------------------------|
D|-------------5h7-----------------|-------------5h7-----------------|
A|---------------------------------|---------------------------------|
E|-5-------------------------------|-5-------------------------------|
B|---------------------------------|---------------------------------|
   1 e + a 2 e + a 3 e + a 4 e + a   1 e + a 2 e + a 3 e + a 4 e + a



************************************

| x   Dead note
| h   Hammer-on
| p   Pull-off
| m   Mute

************************************

            
            
Suggest correction
Creating personal tab
Creating personal tab
You can edit any tab online and save it as your Personal.

You can edit, replace or remove any tab part or add personal notes – all changes will be seen only by you.

Personal tabs can be accessed anytime from any device, even offline.
Learn more »
Give kudos to tab author, rate the tab!
1 2 3 4 5
comments
print report bad tab
guest
You may want to rate the tab now too:
select rating
Wanna post a correction for this tab? Suggest correction