Oops, an error
Loading. Please wait.

Your Song tab

version 1
version 1

Whole song

395 views 1 this week
2 commentsread comments
1 2 3 4 5
2 more votes to show rating
add to favorites
×
Save as Personal and add changes to this tab that will be seen only by you. Learn more ›
×
You can save this tab as Personal to edit and correct it or add notes. All changes will be seen only by you. Learn more »
launch autoscroll
font size
0
reset
how to read this tab
guitar tuner
edit
Autoscroll
slow
fast
+/-
esc
set tempo
stop
Band:   JamisonParker
Song:   Your Song
Alblum: Sleepwalker
Tuning: Standard


Intro (Guitar 1): 2X
e|-----------------------------------------------------------------------|
b|-----------10------10------10------10------10-----10---11---10----10---|
g|---------10--10--10--10--10--10--10--10--10--10-10--10---10---10----10-|
d|-10-10-10------10------10------10-------8------8-----------8----10-----|
a|-----------------------------------------------------------------------|
E|-----------------------------------------------------------------------|

Guitar 2:
e|-------------------------------------------------|
b|-------------------------------------------------|
g|-------------------------------------------------|
d|-------------------------------------------------|
a|-----7-7------7----7-8--8s10-10-12-12s13-12-10-8-|
E|-8-10-----8-10-8--8------------------------------|

Verse:
e|-------------------------------------------------|
b|-------------------------------------------------|
g|-------------------------------------------------|
d|-------------------------------------------------|
a|-----7-7------7----7-8--8s10-10-12-12s13-12-10-8-|
E|-8-10-----8-10-8--8------------------------------|

Chorus:
e|---------|
b|---------|
g|-5-------|
d|-5-5-7-3-|
a|-3-5-7-3-|
E|---3-5-1-|

            
            
Suggest correction
Creating personal tab
Creating personal tab
You can edit any tab online and save it as your Personal.

You can edit, replace or remove any tab part or add personal notes – all changes will be seen only by you.

Personal tabs can be accessed anytime from any device, even offline.
Learn more »
Give kudos to tab author, rate the tab!
1 2 3 4 5
comments
print report bad tab
2 comments total.
0 reply
aron444 708 Sep 25, 2006 01:26 PM

For starters, the intro is as follows.

e|---------------------------------------------------------------
B|---------------------------------------------------------------
G|------------8--------8--------8--------8--------8---------8----
D|----------9---9----9---9----9---9----9---9---10---10---10---10-
A|-10-10-10-------10-------10-------10-------8---------8---------
E|---------------------------------------------------------------

e ----------------------------|
B -11------10------11---------|
G ----10------10------10------|
D -------8-------8------------|
A ----------------------------|
E ----------------------------|

0 reply
aron444 708 Sep 25, 2006 01:28 PM

OOOPs, had the ending messed up a bit

e|---------------------------------------------------------------
B|---------------------------------------------------------------
G|------------8--------8--------8--------8--------8---------8----
D|----------9---9----9---9----9---9----9---9---10---10---10---10-
A|-10-10-10-------10-------10-------10-------8---------8---------
E|---------------------------------------------------------------

e --------------------------|
B -11------10------10-------|
G ----10------10------------|
D -------8-------8----------|
A --------------------------|
E --------------------------|

guest
You may want to rate the tab now too:
select rating
Wanna post a correction for this tab? Suggest correction