Oops, an error
Loading. Please wait.

La Flaca bass

version 1
version 1

Whole song

Interactive

30,593 views 69 this week
1 commentread comment
1 2 3 4 5
3 more votes to show rating
add to favorites
×
Save as Personal and add changes to this tab that will be seen only by you. Learn more ›
×
You can save this tab as Personal to edit and correct it or add notes. All changes will be seen only by you. Learn more »
launch autoscroll
font size
0
reset
guitar tuner
backing track
0:00
0:00
edit
Autoscroll
slow
fast
+/-
esc
set tempo
stop
Author
Unregistered
LA FLACA
JARABE DE PALO

  En la vida conoci…
  1a.
G|-------------------------------------------------|
D|------------------------------------------9------|
A|----------5--7-------7--5-----------10—5-7-------|
E|--5----8---------7---------5-5---7-8---------8-7-|


  Cien libras de piel…
  2a.
G|----------------------------------------------|
D|----------------------------------------------|
A|----------5--7-------7--5----------10—--------|
E|--5----8---------7---------55---78------7-----|


  …que sin palabras habla…
  3a.
G|------------------------------------------------------------|
D|------------------------------------------------------------|
A|----------------------------------------7-7-7-7-7-7-7--5----|
E|--11111223-------0-3-0-5-5-5-5-5-5-5-5--------------------8-|

  La flaca duerme de día..
  4a.
G|----------------------------------------------|
D|----------------------------------------------|
A|----------5--7-------7--5---------10—10-------|
E|--5----8---------7---------55---78-------0023-|


  y balar y balar...
  5a.
G|----------------------------------------------|
D|----------------------------------------------|
A|----------5--7-------7--5----------10—--------|
E|--5----8---------7---------55---78------7-----|


  pero ella nunca engorga
  6a.
G|----------------------------------------------|
D|----------------------------------------------|
A|----------------------------------------------|
E|----11111223--------33333333------55555555----|

  7a.
G|-------------------|
D|-------------------|
A|---5-5-5-5-5-8*----|
E|--------5----------|
* Jalar ligando hacia abajo de la cuerda


Corus

  Por un beso de la flaca..
  C1
G|--------------------------------|
D|--------------------------------|
A|------------------------5-55—---|
E|--1-0-11-13-0-33-35-0-55--5—-8--|


  Por un beso de la flaca
  C2.
G|-------------------------------------|
D|-------------------------------------|
A|---------------------------5--5---5—-|
E|--1-0-11-13-0-3-3-3-5-0-5-5--5—----5-|

  C3.
G|------------------------------------------------------------|
D|------------------------------------------------------------|
A|-----------------------------------------7-7-7-7-7-7--5-----|
E|---1---2-3-------0-3-0--5-5-5-5-5-5-5-5-----------------8---|


Continua:
1a., 2a., 6ª. y 7ª.
Corus C1 y C2

  Aunque solo uno fuera
  8a.
G|-----------------------------------|
D|-----------------------------22----|
A|-----------------------3-3-2—--3-2-|
E|--1-0-11-13-0-3-3-3-5-5------------|
(x 5)

  Aunque solo uno fuera
  9a.
G|-----------------------------------|
D|-----------------------------------|
A|-----------7-7---------------------|
E|--5--8-7-7-----8-7-----------------|

            
            
Suggest correction
Creating personal tab
Creating personal tab
You can edit any tab online and save it as your Personal.

You can edit, replace or remove any tab part or add personal notes – all changes will be seen only by you.

Personal tabs can be accessed anytime from any device, even offline.
Learn more »
Give kudos to tab author, rate the tab!
1 2 3 4 5
comments
print report bad tab
1 comment total.
+1 reply
manu_2_13 10 Apr 05, 2015 10:20 PM

didn't like this contribution

guest
Wanna post a correction for this tab? Suggest correction