Oops, an error
Loading. Please wait.

Do You Remember tab

version 1
version 1

Whole song

2,221 views 24 this week
no commentswrite comment
1 2 3 4 5
x 5
add to favorites
×
Save as Personal and add changes to this tab that will be seen only by you. Learn more ›
×
You can save this tab as Personal to edit and correct it or add notes. All changes will be seen only by you. Learn more »
launch autoscroll
font size
0
reset
how to read this tab
guitar tuner
edit
Autoscroll
slow
fast
+/-
esc
set tempo
stop
Do You Remember - Jarryd James
Tabbed by: Sooz
Email: SoozMuze@gmail.com
Tuning: Standard
Time Sig: 4/4

(Structure & chords: you could also capo on 4th fret and play Am(c#m), C(e), G(b), D(f#) shapes)
     C#m    E     B     F#m
e|----4-----7-----7-----2---|
B|----5-----9-----7-----2---|
G|----6-----9-----8-----2---|
D|----6-----9-----9-----4---|
A|----4-4-6-7-----9-----4---|
E|----4-----7-----7-----2---|
        /\
(**step up these bass notes when changing from C#m to E**)

[INTRO](RIFF - played throughout the song except in the BRIDGE):
Palm Mute (PM) all notes, as well as staccato playing (short and detached)
e|------0-0-2-2-4-------0-0-2-2-4--|-------0-0-2-2-4-------0-0-2-2-4---|
B|--2-2-------------2-2------------|---2-2-------------2-2-------------|
G|---------------------------------|-----------------------------------|
D|---------------------------------|-----------------------------------|
A|---------------------------------|-----------------------------------|
E|---------------------------------|-----------------------------------|
    
e|-----------0-0-2-----------0-0-2--|-----------0-0-2-----------0-0-2--|
B|---0-0-2-2---------0-0-2-2--------|---0-0-2-2---------0-0-2-2--------|
G|----------------------------------|----------------------------------|
D|----------------------------------|----------------------------------|
A|----------------------------------|----------------------------------|
E|----------------------------------|----------------------------------|

[VERSE]
C#m                                        E
When did we lose our way? Easier to let it go,  mmm
C#m                                           E
So many can't tell anybody, harder to let you know

[PRE CHORUS]
                    B
Call me when you've made up your mind but you won't

Caught up in the way that you played my heart
     C#m
Only love could ever hit this hard

[CHORUS]
C#m                                                 E
Oh, don't be scared about it, don't forget it was real
                                    B
Do you remember the way it made you feel?
                                      C#m
Do you remember the things it let you feel?

[VERSE]
C#m                                                 E
How do I make you stay, when it's easier to let you go?    nanah
C#m                                                 E
Nobody knows what we know about it, no one needs to know

[PRE CHORUS]
                    B
Call me when you've made up your mind but you won't

Caught up in the way that you played my heart
     C#m
Only love could ever hit this hard

[CHORUS]
C#m                                                 E
Oh, don't be scared about it, don't forget it was real
                                    B
Do you remember the way it made you feel?
                                      C#m
Do you remember the things it let you feel?

[BRIDGE]
         C#m
When you love to your limit, you gave all you're given
              B
Who you gonna pray to when you're there?
                                      F#m
Will you find out that there ain't no other love
                  C#m
No other love for you

[CHORUS]
C#m                                                 E
Oh, don't be scared about it, don't forget it was real
                                    B
Do you remember the way it made you feel?
                                      C#m
Do you remember the things it let you feel?

[CHORUS]
C#m                                                 E
Oh, don't be scared about it, don't forget it was real
                                    B
Do you remember the way it made you feel?
                                      C#m
Do you remember the things it let you feel?

[Riff]PM all
[GTR 1]
e|------0-0-2-2-4-------0-0-2-2-4--|-------0-0-2-2-4-------0-0-2-2-4---|
B|--2-2-------------2-2------------|---2-2-------------2-2-------------|
G|---------------------------------|-----------------------------------|
D|---------------------------------|-----------------------------------|
A|---------------------------------|-----------------------------------|
E|---------------------------------|-----------------------------------|

[GTR 2]
e|--4-4-4-4-4-4-4---4-4-4-4-4-4-4--|---4-4-4-4-4-4-4---4-4-4-4-4-4-4---|
B|---------------------------------|-----------------------------------|
G|---------------------------------|-----------------------------------|
D|---------------------------------|---------------------------1---1---|
A|--4------------------------------|---4---------------4---4-----------|
E|---\-----------------------------|--/-\-------------/----------------|
      \______________________________/   \___________/

[GTR 1]
e|-----------0-0-2-----------0-0-2--|-----------0-0-2-----------0-0-2--|
B|---0-0-2-2---------0-0-2-2--------|---0-0-2-2---------0-0-2-2--------|
G|----------------------------------|---------------------------------*|
D|----------------------------------|---------------------------------*|
A|----------------------------------|----------------------------------|
E|----------------------------------|----------------------------------|

[GTR 2]
e|---2-2-2-2-2-2-2---2-2-2-2-2-2-2--|---2-2-2-2-2-2-2---2-2-2-2-2-2-2--|
B|----------------------------------|----------------------------------|
G|----------------------------------|---------------------------------*|
D|---2------------------------------|---2---------------2-------------*|
A|----\-----------------------------|--/-\-------------/---------------|
E|-----\----------------------------|-/---\-----------/----------------|
        \____________________________/     \_________/

************************************

| PM  Palm mute

************************************

            
            
Suggest correction
Creating personal tab
Creating personal tab
You can edit any tab online and save it as your Personal.

You can edit, replace or remove any tab part or add personal notes – all changes will be seen only by you.

Personal tabs can be accessed anytime from any device, even offline.
Learn more »
comments
print report bad tab
guest
You may want to rate the tab now too:
select rating
Wanna post a correction for this tab? Suggest correction