Oops, an error
Loading. Please wait.

Halo tab

3,910 views 15 this week
no commentswrite comment
1 2 3 4 5
x 3
add to favorites
×
Save as Personal and add changes to this tab that will be seen only by you. Learn more ›
×
You can save this tab as Personal to edit and correct it or add notes. All changes will be seen only by you. Learn more »
launch autoscroll
font size
0
reset
how to read this tab
guitar tuner
edit
Autoscroll
slow
fast
+/-
esc
set tempo
stop
-------------------------------------------------------------------------------
                             Halo - Jasmine Thompson
-------------------------------------------------------------------------------
Tabbed by: LillaMartin
E-mail: RasmusSture@hotmail.se

Tuning: standard capo 3th fret. 
Okey so very very simple arrangement by Jasmine but I will tab it out incase
someone want it. I will just tab the "intro" because she picks same pattern
through hole song. 

https://www.youtube.com/watch?v=wda2qajOBi8&list=UUxMYYfhs8BqYmJLBHmgsXLw
Here is the perfomance in action if you wanna play along!

So the chord she is plucking is: G, Am, Em and C.

    G                           Am 

e|---------------------------------------------------------------------------|
B|--------0------------0--------------1--------------1-----------------------|
G|-------------0-------------0--------------2--------------2-----------------|
D|-----------0-------------0-------2-----2--------2-----2--------------------|
A|-----2-------------2----------0--------------0-----------------------------|
E|--3-------------3----------------------------------------------------------|

    Em                             C

e|-------------------------------------------------------------------------3-|
B|--------0---------------0--------------1---------------1-------------1-----|
G|--------------0--------------0---------------0---------------0---------0---|
D|-----2-----2---------2----2---------2-----2--------2------2--------2-------|
A|--2---------------2--------------3--------------3----------------3---------|
E|---------------------------------------------------------------------------|

Beside from the last not there this is what Jasmine is repeating this song. 
Good luck and have fun! 

            
            
Suggest correction
Creating personal tab
Creating personal tab
You can edit any tab online and save it as your Personal.

You can edit, replace or remove any tab part or add personal notes – all changes will be seen only by you.

Personal tabs can be accessed anytime from any device, even offline.
Learn more »
Give kudos to tab author, rate the tab!
1 2 3 4 5
comments
print report bad tab
guest
You may want to rate the tab now too:
select rating
Wanna post a correction for this tab? Suggest correction