Oops, an error
Loading. Please wait.

Molotov chords

version 1
version 1

Whole song

  • This chart includes the full chording of the whole... Show more
5,521 views 246 this week
3 commentsread comments
1 2 3 4 5
x 21
add to favorites
×
Save as Personal and add changes to this tab that will be seen only by you. Learn more ›
×
You can save this tab as Personal to edit and correct it or add notes. All changes will be seen only by you. Learn more »
launch autoscroll
font size
0
reset
transpose
0
reset
simplify chords
display chords
guitar tuner
edit
Autoscroll
slow
fast
+/-
esc
set tempo
stop
Strumming
There is no strumming pattern for this song yet. and get +5 IQ
[Intro]
    Am            Em            C
E|------------------------------------------|
B|-------------------------0-------------1--|
G|----------2----------0--------------------|
D|------2----------2---------------2--------|
A|--0---------------------------3-----------|
E|------------------------------------------|

[Verse 1]
(For the second half of each verse stanza that starts with a G chord, I like this 
hammering on like this)

    G Am7/G
E|--3----3-----|
B|--0---h1-----|
G|--0----0-----|
D|--0---h2-----|
A|--2----------|
E|--3----3-----|

G                  (Am7/G)
Another life but I still remember
G                  (Am7/G)
A county fair in steamy September
Em                        Bm C       G
In the Year of the Tiger  19-something
G                  (Am7/G)
I was broke and you were unbroken
G                  (Am7/G)
A little jokes to keep it unspoken
Em                        Bm C        G
Even when I knew you were the last one


[Chorus]
                     Am
I broke a promise to myself
                          Em
To ride the throttle 'til wheels came off
                C
Burn out like a Molotov
             Em
In the night sky
                     Am
I broke a promise to myself
                   Em
Made a couple to a brown eyed girl
                             C
Who rode with me through the mean ol' world
          G
Never say die

E|------------------------------------------|
B|--3-3-3-----------------------------------|
G|----------4~--2--2--0--2--4---------------|
D|------------------------------------------|
A|------------------------------------------|
E|------------------------------------------|

[Verse 2]
G
Time flies when you're making babies
G
Do you miss your little black Mercedes
Em                        Bm C             G
Do you miss the girl you once had time to be
G
When you said we had the same three wishes
G
I hope you weren't being facetious
Em                        Bm C           G
And I hope you still see fire inside of me


[Chorus]
                      Am
I broke a promise to myself
                          Em
To ride the throttle 'til wheels came off
                C
Burn out like a Molotov
             Em
In the night sky
                     Am
I broke a promise to myself
                   Em
Made a couple to a brown eyed girl
                             C
Who rode with me through the mean ol' world
          G
Never say die


[Instrumental]

G

F    G(quick) Am   G(quick) C    G

F    G(quick) Am   G(quick) C    Em


(Under the G chord, the same riff is played)

E|-------------------------------|
B|*--3-3-3----------------------*|
G|----------4~--2--2--0--2--4----|
D|-------------------------------|
A|*-----------------------------*|
E|-------------------------------|

[Chorus]

Em                     Am
I broke a promise to myself
                          Em
To ride the throttle 'til wheels came off
                C
Burn out like a Molotov
             Em
In the night sky
                     Am
I broke a promise to myself
                   Em
Made a couple to a brown eyed girl
                             C
Who rode with me through the mean ol' world
          G
Never say die

[Outro Riff (x2)]

E|------------------------------|---------------------------|
B|*--3-3-3---------------------*|---------------------------|
G|----------4~--2--2--0--2--4---|-2-0----4-2-0-----0-----0--|
D|------------------------------|-----2---------4b5---4b5---|
A|*----------------------------*|---------------------------|
E|------------------------------|---------------------------|

            
            
Suggest correction
Creating personal tab
Creating personal tab
You can edit any tab online and save it as your Personal.

You can edit, replace or remove any tab part or add personal notes – all changes will be seen only by you.

Personal tabs can be accessed anytime from any device, even offline.
Learn more »
comments
print report bad tab
3 comments total.
0 reply
padraighc 10 Jul 22, 2017 11:32 AM

Great tab to an awesome song! Thanks

0 reply
padraighc 10 Aug 13, 2017 06:55 PM

needs the am7 s on second verse though

0 reply
FlyGuyBry 10 Aug 29, 2017 03:18 PM

Great tab!

guest
You may want to rate the tab now too:
select rating
Wanna post a correction for this tab? Suggest correction