Oops, an error
Loading. Please wait.
We have Chord Pro version of I Wont Give Up.
It's the closest thing you can get to the original song and it has interactive parts. Check out the tab »
×

I Wont Give Up bass

version 3
version 3

Whole song

  • This is the tab to bass only. The other version lo... Show more

Interactive

373 views 9 this week
no commentswrite comment
1 2 3 4 5
1 last vote to show rating
add to favorites
×
Save as Personal and add changes to this tab that will be seen only by you. Learn more ›
×
You can save this tab as Personal to edit and correct it or add notes. All changes will be seen only by you. Learn more »
launch autoscroll
font size
0
reset
guitar tuner
edit
Autoscroll
slow
fast
+/-
esc
set tempo
stop
About this tab version
This is the tab to bass only. The other version looks like it includes the guitar part as well. This is also simplified from the original, but the nature of the song leaves plenty of room for improvisation and building-on as skill improves. Was this info helpful? Yes No
I Won't Give Up
Jason Mraz
Thanks to bassplay12 on YouTube and my spouse for helping me transcribe these!

Intro
G|---------------|---------------|---------------|------------------|
D|---------------|---------------|---------------|------------------|
A|---------------|---------------|---------------|-------------2---2|
E|------0-----0-0|------0-----0-0|---0--------0-0|---------------2--|

When I look into your eyes; It's like watching the night sky
Or a beautiful sunrise; There's so much they hold
G|---------------|---------------|---------------|------------------|
D|---------------|---------------|---------------|------------------|
A|---------------|---------------|---------------|-------------2---2|
E|------0-----0-0|------0-----0-0|---0--------0-0|---------------2--|

And just like them old stars; I see that you've come so far
To be right where you are; How old is your soul?
G|---------------|---------------|---------------|------------------|
D|---------------|---------------|---------------|------------------|
A|---------------|---------------|---------------|-------------2---2|
E|------0-----0-0|------0-----0-0|---0--------0-0|---------------2--|

Well I won't give up on us; even if the skies get rough
I'm giving you all my love; I'm still looking up
G|---------------|---------------|---------------|-----------------|
D|---------------|---------------|---------------|--------------4--|
A|---------------|-------4------2|---------------|------------2---2|
E|-------5------0|---------------|-------5------0|-----------------|

And when you're needing your space, to do some navigating
I'll be here patiently waiting, to see what you find
G|---------------|---------------|---------------|------------------|
D|---------------|---------------|---------------|------------------|
A|---------------|---------------|---------------|-------------2---2|
E|------0-----0-0|------0-----0-0|-3-2-0------0-0|---------------2--|

'Cause even the stars they burn; Some even fall to the earth
We've got a lot to learn; God knows we're worth it
G|---------------|---------------|---------------|---------------|
D|---------------|---------------|---------------|---------------|
A|---------------|-------4------2|---------------|-----------2---|
E|-------5------0|---------------|-------5------0|---------------|

G|-------------------|
D|------1-1-1--------|
A|-2-2-2-------------|
E|-------------------|
                 
No, I won't give up
G|------|-------------------|
D|------|-------------------|
A|-----0|--2-2-2-0-0-0------|
E|------|-------------------|

I don't wanna be someone who walks away so easily
I'm here to stay and make the difference that I can make
G|-------------------------|------------------------|
D|-------------------------|-------------1-1-1------|
A|-------------------------|-2-2-2-2-2-2-------2-2-2|
E|-2-2-2-2-2-2-2-2-2-2-2-2-|------------------------|

Our differences they do a lot to teach us how to use
The tools and gifts we got yeah, we got a lot at stake
G|-------------------------|------------------------|
D|-------------------------|-------------1-1-1------|
A|-------------------------|-2-2-2-2-2-2-------2-2-2|
E|-2-2-2-2-2-2-2-2-2-2-2-2-|------------------------|

And in the end, you're still my friend at least we did intend;
For us to work we didn't break, we didn't burn;
G|-------------------------|--------------------------|
D|-0-0-0-0-0-0-0-0-0-0-0-0-|-1-1-1-1-1-1-1-1----------|
A|-------------------------|------------------2-4-2-2-|
E|-------------------------|-----------------2-----2--|

We had to learn how to bend without the world caving in;
I had to learn what I've got, and what I'm not and who I am;
G|-------------------------|-----------------|------|
D|-0-0-0-0-0-0-1-1-1-1-1-1-|-----------------|------|
A|-------------------------|-----------------|------|
E|-------------------------|-0L---------0-0-0|------|


I won't give up on us, even if the skies get rough
G|-------------|-------------|-------------|-------------|
D|-------------|-------------|-------------|-------------|
A|-0-0-0-0-0-0-|-------------|-4-4-4-4-4-4-|-2-2-2-2-2-2-|
E|-------------|-0-0-0-0-0-0-|-------------|-------------|

I'm giving you all my love; I'm still looking up, still looking up.
G|-------------|-------------|-------9-8-6-|-8-6-4-------|
D|-------------|-------------|-------------|-------4-----|
A|-0-0-0-0-0-0-|-------------|-4-4-4-------|-----------2-|
E|-------------|-0-0-0-0-0-0-|-------------|---------2---|

I won't give up on us (no I'm not giving up)
God knows I'm tough enough (I am tough, I am loved)
G|-------------|-------------|-------------|-------------|
D|-------------|-------------|-------------|-1-1-1-1-1-1-|
A|-0-0-0-0-0-0-|-------------|-4-4-4-4-4-4-|-------------|
E|-------------|-0-0-0-0-0-0-|-------------|-------------|

We've got a lot to learn (we're alive, we are loved)
God knows we're worth it (and we're worth it)
G|-------------|-------------|-------------|-------------|
D|-------------|-------------|-------------|-------------|
A|-0-0-0-0-0-0-|-------------|-2-2-2-2-2-2-|-2L----------|
E|-------------|-0-0-0-0-0-0-|-------------|-------------|

I won't give up on us, even if the skies get rough
I'm giving you all my love, I'm still looking up
G|---------------|---------------|---------------|---------------|
D|---------------|---------------|---------------|---------------|
A|--0------------|--4---------2--|--0------------|--2L-----------|
E|------------0--|---------------|------------0--|---------------|


KEY
L - Tied note

            
            
Suggest correction
Creating personal tab
Creating personal tab
You can edit any tab online and save it as your Personal.

You can edit, replace or remove any tab part or add personal notes – all changes will be seen only by you.

Personal tabs can be accessed anytime from any device, even offline.
Learn more »
Give kudos to tab author, rate the tab!
1 2 3 4 5
comments
print report bad tab
guest
You may want to rate the tab now too:
select rating
Wanna post a correction for this tab? Suggest correction