Oops, an error
Loading. Please wait.
We have Chord Pro version of I Wont Give Up.
It's the closest thing you can get to the original song and it has interactive parts. Check out the tab »
×
12,673 views 462 this week
1 commentread comment
1 2 3 4 5
x 10
add to favorites
×
Save as Personal and add changes to this tab that will be seen only by you. Learn more ›
×
You can save this tab as Personal to edit and correct it or add notes. All changes will be seen only by you. Learn more »
launch autoscroll
font size
0
reset
transpose
0
reset
simplify chords
display chords
guitar tuner
edit
Autoscroll
slow
fast
+/-
esc
set tempo
stop
Strumming
There is no strumming pattern for this song yet. and get +5 IQ
I Won't Give Up- Jason Mraz

This is exactly how Jason played it live in the video I watched. 

https://www.youtube.com/watch?v=d_jRxMKCozM 

Tuning: Drop D (D,A,D,G,B,E) CAPO 2nd Fret, All frets/chords relative to Capo

Intro:               G/D     D
e|-----------------------------------------------------------|
B|-----------------------------------------------------------|
G|--------------------4--4----2--2-----2--2------------------|x3 (follow the melody on the open D notes to  
D|-0--0-0---2--4------5--5----4--4-----4--4------------------|     get the rhythm)
A|-----------------------------------------------------------|
D|--------------------0-------0------0-----------------------|

              Asus4      A
e|-----------------------------------------------------------|
B|------------3--3----3--2-----------------------------------|
G|------------2--2----2--2-----------------------------------|
D|-4--2--0----2--2----2--2-----------------------------------|
A|------------0-----0----0-----------------------------------|
D|-----------------------------------------------------------|

Intro
G/D  D  G/D  D 
G/D  D  Asus4 A

Verse 1
                 G/D   D                           G/D    D
When I look into your eyes, It's like watching the night sky,
               G/D D                         Asus4  A
Or a beautiful sunrise. There's so much they hold.
                   G/D  D                       G/D      D
And just like them old stars, I see that you've come so far,
                  G/D D                    Asus4  A
To be right where you are. How old is your soul?


Chorus 1
                Gmaj7   D                 Bm          A
I  won't  give  up  on  us even  if  the  skies  get  rough
                  Gmaj7     D                        Asus4 - A
I'm  giving  you  all  my  love I'm  still  looking  up


Verse 2
                        G/D  D                 G/D  D
And when you're needing your space, to do some navigating,
             G/D       D                       Asus4  A
I'll be here patiently waiting, to see what you find.


Chorus 2
                Gmaj7      D                Bm          A
'Cause even the stars they burn. Some even fall to the earth.
            Gmaj7   D                     Asus4     A
We've got a lot to learn. God knows we're worth it.
                Gmaj7
No, I won't give up.


Bridge
          Em
I  don't  wanna  be  someone  who  walks  away  so  easily
                                                       A       Asus4  A
I'm  here  to  stay  and  make  the  difference  that  I  can  make
     Em
Our  differences  they  do  a  lot  to  teach  us  how  to  use
                                                     A        Asus4  A
The  tools  and  gifts  we  got  yeah,  we  got  a  lot  at  stake
              C
And  in  the  end,  you're  still  my  friend  at  least  we  did  intend
                                                       C#m7b5
For  us  to  work  we  didn't  break,  we  didn't  burn
                                                                  C
We  had  to  learn  how  to  bend  without  the  world  caving  in
                                  C#m7b5              
I  had  to  learn  what  I've  got,  and  what  I'm  not
           D
And who I am


Chorus 3
             Gmaj7 D               Bm        A
I won't give up on us, even if the skies get rough.
               Gmaj7  D                       Bm                A
I'm giving you all my love. I'm still looking up, still looking up

Chorus 4
             Gmaj7 D                Bm      A
I won't give up on us God knows I'm tough enough
            Gmaj7   D                     Asus4   A
We've got a lot to learn; God knows we're worth it 

                 

(chorus 1)



   G         D         Bm         A       Asus4      Em
|--x--|   |--2--|    |--2--|   |--0--|   |--0--|   |--0--|
|--x--|   |--3--|    |--3--|   |--2--|   |--3--|   |--0--|
|--0--|   |--2--|    |--4--|   |--2--|   |--2--|   |--0--|
|--4--|   |--0--|    |--4--|   |--2--|   |--2--|   |--2--|
|--5--|   |--0--|    |--2--|   |--0--|   |--0--|   |--2--|
|--5--|   |--x--|    |--x--|   |--x--|   |--x--|   |--2--|

  
   C      C#m7b5     
|--0--|   |--x--|   
|--1--|   |--0--|   
|--0--|   |--0--|   
|--2--|   |--2--|  
|--3--|   |--4--|   
|--x--|   |--x--|   

            
            
Suggest correction
Creating personal tab
Creating personal tab
You can edit any tab online and save it as your Personal.

You can edit, replace or remove any tab part or add personal notes – all changes will be seen only by you.

Personal tabs can be accessed anytime from any device, even offline.
Learn more »
comments
print report bad tab
1 comment total.
0 reply
danihammett 10 Oct 27, 2017 12:18 AM

Just a little add :) great job!
intro: G/D D
e|-------------------------------|
B|--------------------3---3----3-|
G|--------------------4---4----2-|
D|-0--0-0---2--4------5---5----4-|
A|-------------------------------|
D|--------------------0-0------0-|

guest
You may want to rate the tab now too:
select rating
Wanna post a correction for this tab? Suggest correction