Oops, an error
Loading. Please wait.
We have an official Im Yours tab made by UG professional guitarists. Check out the tab »
×
832 views 3 this week
1 commentread comment
1 2 3 4 5
2 more votes to show rating
add to favorites
×
Save as Personal and add changes to this tab that will be seen only by you. Learn more ›
×
You can save this tab as Personal to edit and correct it or add notes. All changes will be seen only by you. Learn more »
launch autoscroll
font size
0
reset
guitar tuner
edit
Autoscroll
slow
fast
+/-
esc
set tempo
stop
Jason Mraz
I’m yours
Album: We sing. We dance. We steal things.

Tuning: standard - Key: B – 75.5 bpm

Intro: 00:01
G|--------------------------------------------------|-
D|-------------     Guitar playing    --------------|-
A|--------------------------------------------------|-
E|--------------------------------------------------|-

Verse1: 00:13
Well, you done done me and you bet I felt it
I tried to be chill, but you're so hot that I melted
I fell right through the cracks
Now I'm trying to get back

Verse2: 00:25
Before the cool done run out
I'll be giving it my bestest
And nothing's gonna stop me but divine intervention.
I reckon, it's again my turn
To win some or learn some.

Bridge: 00:38
But I won't hesitate
No more, no more.
It cannot wait,
I'm yours.

Hey, hey hey

Verse3: 01:03 (Drums + Bass start) 
G|---------------------------------------8r------------------------|-
D|---------------1/4-4r-0-4--4-4--6-6--6----6-4-2-2--0-2--2-2--4r--|-
A|-/2-2--0-2--2----------------------------------------------------|-
E|-----------------------------------------------------------------|-
Well, open up your mind and see like me,
Open up your plans and damn you're free.
Look into your heart and you'll find love, love, love, love.
G|---------------------------------------8r------------------------|-
D|---------------1/4-4r-0-4--4-4--6-6--6----6-4-2-2--0-2--2-2--3r--|-
A|--2-2--0-2--2----------------------------------------------------|-
E|-----------------------------------------------------------------|-
Listen to the music of the moment, people dance and sing, we're just one big family
And it's our God-forsaken right to be loved, loved, loved, loved, loved

Bridge: 01:32 (Play x2)                                     
G|---------------------------------------8r------------------------|-
D|---------------1/4-4r-0-4--4-4--6-6--6----6-4-2-2--0-2--2-2rr----|-
A|-/2-2--0-2--2----------------------------------------------------|-
E|-----------------------------------------------------------------|-
So I won't hesitate
No more, no more.
It cannot wait,    I'm sure.
G|---------------------------------------8r------------------------|-
D|---------------1/4-4r-0-4--4-4--6-6--6----6-4-2-2--0-2--2-2---4r-|-
A|-/2-2--0-2--2----------------------------------------------------|-
E|-----------------------------------------------------------------|-   
There's no need to complicate.
Our time is short.
This is our fate,
I'm yours.

Break: 01:58  (Play x2)
G|-------------------------------------------------|-
D|----------------------------------------2r-\-4r--|-
A|--2-2r--1-1r-------------------------------------|-
E|--------------4-4r--2-2r--0-0r--0-0r--0----------|-
Tchou chout... chou chou...
Do you want to come on, scooch on over closer, dear
And I will nibble your ear

Oh, oh oh... Hummmm 

Verse4: 02:24 (No bass) 
I've been spending way too long checking my tongue in the mirror
And bending over backwards just to try to see it clearer
But my breath fogged up the glass
And so I drew a new face and I laughed.

Verse5: 
I guess what I'll be saying is there ain't no better reason
To rid yourself of vanities and just go with the seasons.
It's what we aim to do.
Our name is our virtue.

Bridge: 02:49
But I won't hesitate
No more, no more.
It cannot wait,
I'm yours.

Verse6: 03:00 (Drums + Bass reprise) 
G|---------------------------------------8r------------------------|-
D|---------------1/4-4r-0-4--4-4--6-6--6----6-4-2-2--0-2--2-2--4r--|-
A|-/2-2--0-2--2----------------------------------------------------|-
E|-----------------------------------------------------------------|-
Well, open up your mind and see like me,
Open up your plans and damn you're free.
Look into your heart and you'll find that the sky is yours.
G|---------------------------------------8r------------------------|-
D|---------------1/4-4r-0-4--4-4--6-6--6----6-4-2-2--0-2--2-2--3r--|-
A|--2-2--0-2--2----------------------------------------------------|-
E|-----------------------------------------------------------------|-
So please don't, please don't, please don't...
There's no need to complicate.
'Cause our time is short.
This oh, this oh, this is our fate.
I'm yours.

Outro:  Play x1, then repeat till fade out...
G|---------------------------------------8r------------------------|-
D|---------------1/4-4r-0-4--4-4--6-6--6----6-4-2-2--0-2--2-2rr----|-
A|-/2-2--0-2--2----------------------------------------------------|-
E|-----------------------------------------------------------------|-
Oh, I'm yours
Oh, I'm yours
Oh, oh,
Baby, do you believe, I'm yours?
You best believe, you best believe, I'm yours.

Repeat till fade out:
G|---------------------------------------8r------------------------|-
D|---------------1/4-4r-0-4--4-4--6-6--6----6-4-2-2--0-2--2-2--4r--|-
A|-/2-2--0-2--2----------------------------------------------------|-
E|-----------------------------------------------------------------|-

End: 04:02

            
            
Suggest correction
Creating personal tab
Creating personal tab
You can edit any tab online and save it as your Personal.

You can edit, replace or remove any tab part or add personal notes – all changes will be seen only by you.

Personal tabs can be accessed anytime from any device, even offline.
Learn more »
Give kudos to tab author, rate the tab!
1 2 3 4 5
comments
print report bad tab
1 comment total.
0 reply
Bruno Frenchy 4,808 Mar 11, 2016 02:25 AM

To play with a Reggae style off beat and smooth... Enjoy

guest
You may want to rate the tab now too:
select rating
Wanna post a correction for this tab? Suggest correction