Oops, an error
Loading. Please wait.

Live High tab

version 1
version 1

Whole song

Interactive

177,466 views 21 this week
7 commentsread comments
1 2 3 4 5
x 21
add to favorites
×
Save as Personal and add changes to this tab that will be seen only by you. Learn more ›
×
You can save this tab as Personal to edit and correct it or add notes. All changes will be seen only by you. Learn more »
launch autoscroll
font size
0
reset
how to read this tab
guitar tuner
edit
Autoscroll
slow
fast
+/-
esc
set tempo
stop
Author
Difficulty
intermediate
[Intro]
(listen for correct timing)
     A            C#m7          Cm7        Bm7         Dm7
e|------------|--------------|----3--->---2-x-2-2-2-2--|-----5----|
B|-----2-h3p3-|----5------5--|----4--->---3-x-3-3-3-3--|-----6----|
G|-----2------|----4------4--|----3--->---2-x-2-2-2-2--|-----5----|
D|---2--------|--6------6----|----5--->---4-x-4-4-4-4--|---7------|
A|--0---------|-4------4-----|----3--->---2-x-2-2-2-2--|--5-------|
E|------------|--------------|-------------------------|----------|

[Verse](4x)
        A             C#m7          Dsus2          Dm7
e|---------------|-------------|--------------|--------------|
B|------2----2---|-----5-----5-|-----5-----5--|-----6-----6--|
G|------2----2---|-----4-----4-|-----7-----7--|-----5-----5--|
D|----2----2-----|---6-----6---|---7-----7----|---7-----7----|
A|---0----0------|--4-----4----|--5-----5-----|--5-----5-----|
E|---------------|-------------|--------------|--------------|

[Chorus] (2x) 
(listen to strumming) play it funky style!
      A            C#m7       Cm7      Bm7          Dm7
e|é--0-x-0-0-0-0--|--4-x-4-4-4-4--|---3-->--2-x-2-2-2-2--|--5-x-5-5-5-5-----|
B|--2-x-2-2-2-2--|--5-x-5-5-5-5--|---4-->--3-x-3-3-3-3--|--6-x-6-6-6-6-----|
G|--2-x-2-2-2-2--|--4-x-4-4-4-4--|---3-->--2-x-2-2-2-2--|--5-x-5-5-5-5-----|
D|--2-x-2-2-2-2--|--6-x-6-6-6-6--|---5-->--4-x-4-4-4-4--|--7-x-7-7-7-7-----|
A|--0-x-0-0-0-0--|--4-x-4-4-4-4--|---3-->--2-x-2-2-2-2--|--5-x-5-5-5-5-----|
E|---------------|---------------|----------------------|------------------|

[Bridge]
(do some picking here, it will sound nice, even though i´m not sure)
Dsus2  Dm7  C#m7  Bm7  Dm7


************************************

| x  Dead note
| h  Hammer-on
| p  Pull-off

************************************

            
            
Suggest correction
Creating personal tab
Creating personal tab
You can edit any tab online and save it as your Personal.

You can edit, replace or remove any tab part or add personal notes – all changes will be seen only by you.

Personal tabs can be accessed anytime from any device, even offline.
Learn more »
comments
print report bad tab
7 comments total. Showing first comments.
0 reply
guitar84 10 Aug 07, 2008 05:58 AM

Thanks! That one is correct and easy to play! :)

0 reply
neppy10 10 Sep 28, 2008 11:18 AM

great :)

0 reply
jgervais 129 Oct 17, 2008 09:21 AM

Intro:
A C#m7 Cm7 Bm7 Dm7
(slap) (slap) (slap) (slap)
é-------x------------------x-------x----3/---2-x-2222--/----555--x--|
B-----2-x-2h3--3p2------5--x----5--x----4/---3-x-3333--/----666--x--|
G-----2-x-2----2--------4--x----4--x----3/---2-x-2222--/----555--x--|
D---2---x-------------6----x--6----x---------4-x-4444--/----777--x--|
A--0----x------------4-----x-4-----x----3/---2-x-2222--/----555--x--|
E-------x------------------x-------x-----------------------------x--|

Pluck Cm7, instead of strumming...
Strum Dm7, instead of finger picking...
Add a slap of the strings between notes to give some dimension to the rhythm...

Bridge:
Notes are good except for the first one...
Play:
e----4------
B----6------
G----5------
D----6------
A----4------
E----x------

Strumming the bridge also sounds pretty good. Both work though.

Also, add some sliding between notes to give it a smooth sound.

Great Tab though!

guest
You may want to rate the tab now too:
select rating
Wanna post a correction for this tab? Suggest correction