Oops, an error
Loading. Please wait.

You Fuckin Did It tab

version 2
version 2

Whole song

421 views 3 this week
no commentswrite comment
1 2 3 4 5
3 more votes to show rating
add to favorites
×
Save as Personal and add changes to this tab that will be seen only by you. Learn more ›
×
You can save this tab as Personal to edit and correct it or add notes. All changes will be seen only by you. Learn more »
launch autoscroll
font size
0
reset
how to read this tab
guitar tuner
edit
Autoscroll
slow
fast
+/-
esc
set tempo
stop
Author
-------------------------------------------------------------------------------
                             YOU FCKN DID IT - Jason Mraz
-------------------------------------------------------------------------------
Tuning:Standard
Key: B minor
Derived from bonus track off of "Love is a Four Letter Word"

The song really consists of just a few parts. I've tabbed out and listed the chords I use that 
seem to fit the track the best.


Intro (just the roots, repeat until chord change):
         Bmin          G            F#min              Bmin
e|---------------------------------------------------------------------------|
B|---------------------------------------------------------------------------|
G|---------------------------------------------------------------------------|
D|---------------------------------------------------------------------------|
A|-------------------11-------------10---------------------------------------|
E|-(5-6)-7-----------------------------------------------7-------------------|
the A, A# into the Bmin happens on the repeat into chords.

Verses:
         Bmin        G           F#min        Bmin
e|-------7-----------10-----------9------------7-------------|
B|-------7-----------12-----------10-----------7-------------|
G|-------7-----------12-----------9------------7-------------|
D|-------7-----------12-----------12-----------7-------------| repeat ad nauseam
A|-------x-----------10-----------9------------x-------------|
E|-------7-------------------------------------7-------------|

Pre-Chorus:
   G            A7       A#dim       Bmin           
e|-9------------12-------12----------14--------------------------------------|
B|-12-----------14-------14----------15--------------------------------------|
G|-12-----------12-------12----------14--------------------------------------|
D|-12-----------14-------14----------16--------------------------------------|x2
A|-10-----------12-------13----------14--------------------------------------|
E|---------------------------------------------------------------------------|

 "So thankful to the gods for making you...."  
     G                                    F#      (he switches to a higher voicing)
e|---3------------------------------------2--------9-------|
B|---3------------------------------------2--------11------|
G|---4------------------------------------3--------11------| into chorus
D|---5------------------------------------4--------11------|
A|---5------------------------------------4--------9-------|
E|---3------------------------------------2----------------|

Chorus:

         Bmin       G            F#min        Bmin
e|-------7-----------10-----------9------------7-------------|
B|-------7-----------12-----------10-----------7-------------|
G|-------7-----------12-----------9------------7-------------|
D|-------7-----------12-----------12-----------7-------------|
A|-------x-----------10-----------9------------x-------------|
E|-------7-------------------------------------7-------------|


I'm primarily a jazz guitarist, so I derived a some of these voicings from jazz. Use what you
like most.
This should get you through the song. Send a message if you have questions or corrections.

************************************

| /   slide up
| \   slide down
| h   hammer-on
| p   pull-off
| ~   vibrato
| +   harmonic
| x   Mute note
| b   Bend
| pb  Pre-bend
| br  Bend release
| pbr Pre-bend release
| brb Bend release bend

************************************

            
            
Suggest correction
Creating personal tab
Creating personal tab
You can edit any tab online and save it as your Personal.

You can edit, replace or remove any tab part or add personal notes – all changes will be seen only by you.

Personal tabs can be accessed anytime from any device, even offline.
Learn more »
Give kudos to tab author, rate the tab!
1 2 3 4 5
comments
print report bad tab
guest
You may want to rate the tab now too:
select rating
Wanna post a correction for this tab? Suggest correction