Oops, an error
Loading. Please wait.

Twilight Serenade tab

version 1
version 1

Whole song

21,188 views 1 this week
4 commentsread comments
1 2 3 4 5
x 4
add to favorites
×
Save as Personal and add changes to this tab that will be seen only by you. Learn more ›
×
You can save this tab as Personal to edit and correct it or add notes. All changes will be seen only by you. Learn more »
launch autoscroll
font size
0
reset
how to read this tab
guitar tuner
edit
Autoscroll
slow
fast
+/-
esc
set tempo
stop
Tabbed by: travis3826
Email:travis3826@hotmail.com

Tuning: Standard

This song is too hard to play at all. A line of x's means strumming the string while muting.
Also sounds good if you just slap the strings.

Comments/Corrections welcome. 

INTRO:

e|-------3--x-x-x--2h3-x--3------x----3-2--x--2h3-----x-x-x-------------|
B|-------3--x-x-x--3---x--3------x----3-3--x--3-------x-x-x-------------|
G|----------x-x-x------x--0------x---------x----------x-x-x-------------|
D|----------x-x-x------x--x------x---------x----------x-x-x-------------|
A|----------x-x-x------x--3------x---------x----------x-x-x-------------|
E|--3-------x-x-x------x---------x---------x-------3--x-x-x-------------|

this part is played throughout the rest of the song

e|---2h3-x--3------x----3-2--x--2h3-----x-x-x---------------------------|
B|---3---x--3------x----3-3--x--3-------x-x-x---------------------------|
G|-------x--0------x---------x----------x-x-x---------------------------|
D|-------x--x------x---------x----------x-x-x---------------------------|
A|-------x--3------x---------x----------x-x-x---------------------------|
E|-------x---------x---------x-------3--x-x-x---------------------------|

            
            
Suggest correction
Creating personal tab
Creating personal tab
You can edit any tab online and save it as your Personal.

You can edit, replace or remove any tab part or add personal notes – all changes will be seen only by you.

Personal tabs can be accessed anytime from any device, even offline.
Learn more »
comments
print report bad tab
4 comments total. Showing first comments.
+1 reply
mrmeyers99 10 Mar 22, 2009 04:14 PM

e|-------3--x-x-x--3---x--3------
B|-------3--x-x-x--3---x--3------
G|----------x-x-x------x--0------
D|----------x-x-x--0h2-x--x------
A|----------x-x-x------x--3------
E|--3-------x-x-x------x---------

should be

e|-------3--x-x-x--2h3-x--3------
B|-------3--x-x-x--3---x--3------
G|----------x-x-x------x--0------
D|----------x-x-x------x--x------
A|----------x-x-x------x--3------
E|--3-------x-x-x------x---------

0 reply
mrmeyers99 10 Mar 22, 2009 04:15 PM

The above correction should be reversed. The bottom is how he has it, the top is how it should be.

0 reply
mordain 10 Aug 01, 2009 11:04 AM

That was going to be my only comment...well done on the correction. I also believe that there is a bass C note in a couple other places as well.

guest
Wanna post a correction for this tab? Suggest correction