Oops, an error
Loading. Please wait.

Chinese Fork Tie bass

by Jawbox
140 views 6 this week
no commentswrite comment
1 2 3 4 5
3 more votes to show rating
add to favorites
×
Save as Personal and add changes to this tab that will be seen only by you. Learn more ›
×
You can save this tab as Personal to edit and correct it or add notes. All changes will be seen only by you. Learn more »
launch autoscroll
font size
0
reset
guitar tuner
edit
Autoscroll
slow
fast
+/-
esc
set tempo
stop
Author
Artist - Jawbox
Album - Jawbox/My Scrapbook of Fatal Accidents
Song - Chinese Fork Tie
Year - 1996/1998
Bassist - Kim Coletta
Tabber - Alowishus
Date - 20/05/2013

There's two versions of this song which have official releases. The studio version is on
the 1996 album 'Jawbox'. However there is also a demo version on My Scrapbook of Fatal
Accidents. Both versions are pretty identical though in terms of bass lines. There are 
also only two bass parts to this song.

Intro - Guitar and Drums open "Said you were..."

Verse - "...ten feet tall and bullet proof"

G|----------------|----------------|
D|----------------|----------------|
A|----------5--2--|-------2--------|
E|-1--3--3--------|-1--3-----3--3--|

Chorus 1 - "take the big man down"

G|---------------|---------------|
D|---------------|---------------|
A|-2--2----------|-4--4----------|
E|-------0-0--0--|-------0-0--0--|

The first chorus is kind of strange as it then goes to an instrumental section midway
through the Chorus:

G|----------------|----------------|
D|----------------|----------------|
A|----------5--2--|-------2--------|
E|-1--3--3--------|-1--3-----3--3--|

then it returns to the verse part again when the vocals return

G|---------------|---------------|
D|---------------|---------------|
A|-2--2----------|-4--4----------|
E|-------0-0--0--|-------0-0--0--|

Verse 2

G|----------------|----------------|
D|----------------|----------------|
A|----------5--2--|-------2--------|
E|-1--3--3--------|-1--3-----3--3--|

Chorus 2 - is just the "main chorus bit"

G|---------------|---------------|
D|---------------|---------------|
A|-2--2----------|-4--4----------|
E|-------0-0--0--|-------0-0--0--|

Bridge - is just the verse part again

G|----------------|----------------|
D|----------------|----------------|
A|----------5--2--|-------2--------|
E|-1--3--3--------|-1--3-----3--3--|

Chorus 3/Outro

G|---------------|---------------|
D|---------------|---------------|
A|-2--2----------|-4--4----------|
E|-------0-0--0--|-------0-0--0--|

That's the end!

            
            
Suggest correction
Creating personal tab
Creating personal tab
You can edit any tab online and save it as your Personal.

You can edit, replace or remove any tab part or add personal notes – all changes will be seen only by you.

Personal tabs can be accessed anytime from any device, even offline.
Learn more »
Give kudos to tab author, rate the tab!
1 2 3 4 5
comments
print report bad tab
guest
You may want to rate the tab now too:
select rating
Wanna post a correction for this tab? Suggest correction