Oops, an error
Loading. Please wait.

Beautifully tab

version 2
version 2

Whole song

9,692 views 6 this week
4 commentsread comments
1 2 3 4 5
x 4
add to favorites
×
Save as Personal and add changes to this tab that will be seen only by you. Learn more ›
×
You can save this tab as Personal to edit and correct it or add notes. All changes will be seen only by you. Learn more »
launch autoscroll
font size
0
reset
how to read this tab
guitar tuner
edit
Autoscroll
slow
fast
+/-
esc
set tempo
stop
Author
Difficulty
Hi Im a girl from Hong Kong and i fell in love with this song at ONCE when my frd lend 
his iphone to listen to his songs.
It's an easy song with simple but great melody.love it.
hope you like it and find it useful.(:

/Capo at the 6th fret/

Intro
E--------------------------------------------------------|
B---------3-----------3-----------3-----------3----------|
G------------2-----------2-----------0-----------0-------|
D---0--0--------------------------------2--2-------------| x2
A---------------0--0--------2--2-------------------------|
E--------------------------------------------------------|


Repeat this system till....

Every time he goes, she dies
Every time she comes, she cries

He was her long, bright future
In the middle of a wrong, dark road
He loved her, but he wasn't too sure
If he could return the love she showed
When she said, my love extends
Beyond the realm of being friends
He kissed her head
And quietly he said

HERE.


Chours:


It's not that you're not beautiful, you're just not beautiful to me
E-----2---------------------0--------------------------7----------2------|
B-----3---------------------3--------------------------8----------3------|
G-----2---------------------0--------------------------7----------2------|
A----(0)--------------------0-------------------------(0)--------(0)-----|
B----(0)--------------------2-------------------------(0)--------(0)-----|
E-----x---------------------3--------------------------x----------x------|


She said, how beautiful do I have to be?
E-----------------2--------0-------------10-------------|
B-----------------3--------3-------------10-------------|
G-----------------2--------0-------------(0)------x5----|
D----------------(0)-------0-------------(0)------------|
A----------------(0)-------2--------------x-------------|
E-----------------x--------3--------------x-------------|

When I look in the mirror, you're the only thing I see
E--------2------------0-----------------7-----------2------|
B--------3------------3-----------------8-----------3------|
G--------2------------0-----------------7-----------2------|
D-------(0)-----------0----------------(0)---------(0)-----|
A-------(0)-----------2----------------(0)---------(0)-----|
E--------x------------3-----------------x-----------x------|

And I have loved you beautifully
E---2-------------0-------------10-------------|
B---3-------------3-------------10-------------|
G---2-------------0-------------(0)------x5----|
D--(0)------------0-------------(0)------------|
A--(0)------------2--------------x-------------|
E---x-------------3--------------x-------------|

*the 0 in the () is optional.


Then repeat the above systems.

Well, ten thousand tears passed by
But she never let him see her cry
And he called up down one night
He said, let's get in the car and just drive

He talked a lot about loneliness
But why, she didn't know
And some song about Memphis
Was playing on the radio
She said, let's stop the car and slow dance
Won't you just give me a chance?
He took her hand
And hoped she'd understand

Chorus:

It's not that you're not beautiful, you're just not beautiful to me
She said, how beautiful do I have to be?
When I look in the mirror, you're the only thing I see
And I have loved you beautifully

Bridge:
Well, she'll burn that bridge
And build a house
And swallow the smoke in her mouth
She'll feel the burn
And then make the choice
To put the fire in her voice

It's not that you're not beautiful, you're just not beautiful to me
She said, how beautiful do I have to be?
When I look in the mirror, you're the only thing I see
And I have loved you beautifully

Chorus
Dmaj

            
            
Suggest correction
Creating personal tab
Creating personal tab
You can edit any tab online and save it as your Personal.

You can edit, replace or remove any tab part or add personal notes – all changes will be seen only by you.

Personal tabs can be accessed anytime from any device, even offline.
Learn more »
comments
print report bad tab
4 comments total. Showing first comments.
0 reply
CaughtByNessie 183 Mar 31, 2010 10:04 AM

very accurate :D

0 reply
marvelguy25 10 Jun 16, 2010 01:44 PM

i think the bridge goes:

E--0---0---0---2-------5---2-3-2-0-------------------|
B--3--3-3--3--3-3--3--3-3----------------------------|
G--2-------0-------4---------------------------------|
D--0-------0-------5---------------------------------|
A----------------------------------------------------|
E----------------------------------------------------|

0 reply
Drake1 20 Sep 21, 2010 03:40 PM

hey for the chorus, I play a G chord like this:

E---3--
B---3--
G------
D------
A---2--
E---3--

just what I play.. I think it sounds better. great tab tho otherwise!

guest
You may want to rate the tab now too:
select rating
Wanna post a correction for this tab? Suggest correction