Oops, an error
Loading. Please wait.

Housewife tab

version 2
version 2

Whole song

5,074 views 1 this week
1 commentread comment
1 2 3 4 5
x 7
add to favorites
×
Save as Personal and add changes to this tab that will be seen only by you. Learn more ›
×
You can save this tab as Personal to edit and correct it or add notes. All changes will be seen only by you. Learn more »
launch autoscroll
font size
0
reset
how to read this tab
guitar tuner
edit
Autoscroll
slow
fast
+/-
esc
set tempo
stop
Author
This is the best I could do and its my first tab. If you have any complaints or if
there are errors the email me at nremetz2@yahoo.com

e------------------0--------------------------------0-----------|
b------------------0-------------------------------2------------|
g--------------1-------1----------------------2-----------------|
d-----------2--------------2-------------2----------------------|
a-------------------------------------0-------------------------|
E-------0-------------------------------------------------------|

    Chorus                          E                  A
E              A              e-----0-----      e------0------|
I wana be a housewife         b-----0-----      b------2------|
E                   A         g-----1----       g------2------|
Whats so wrong with that      d-----2-----      d------2------|
E              A              a-----2-----      a------0------|
I wana be a housewife, yeah   E-----0-----      E------0------|
E                        A
And that’s just where Im at

e------------------------------------------------0---------------------------|
b--------0--------0---------2--------2--------------2/0----------------------|
g---------------------------------------------------------------0/1----------|
d----------------------------------------------------------------------2-----|
a----------------------------------------------------------------------------|
E--------0--------0---------0--------0---------------------------------------|

The rest of the song has the same E &A progression
here’s the lyrics (Listen to the song to get where to
put in the  0--2/0--0/1—2 its not on every line and
its also in the chords sometimes)

two bodies pressed together  two boys are falling hard
the smell of sweat and leather  a kinky greeting card

crazy about each other  we both have fucked up pasts
but when we are together  we have a fucking blast

chorus

i’m making guacamole  he’s working on the car
when he grills turkey burgers  he knows i like them charred

i like to wash the dishes  i like to scrub the floors
don’t mind doing his laundry  what are boyfriends for

chorus

i wanna have his baby  i wanna wear his ring
he drives me fuckin crazy  i am his everything

chorus

2nd chorus
i wanna be a housewife  what’s so wrong with that
can’t wait ‘til he’s in my life, yeah  cuz we haven’t met

we haven’t met yet…

            
            
Suggest correction
Creating personal tab
Creating personal tab
You can edit any tab online and save it as your Personal.

You can edit, replace or remove any tab part or add personal notes – all changes will be seen only by you.

Personal tabs can be accessed anytime from any device, even offline.
Learn more »
comments
print report bad tab
1 comment total.
0 reply
SunburstRVG 198 May 24, 2010 09:36 AM

A wonderful song and a wonderful correct tab! Thanks for it!!

guest
You may want to rate the tab now too:
select rating
Wanna post a correction for this tab? Suggest correction