Oops, an error
Loading. Please wait.

Dao Xiang tab

version 1
version 1

Whole song

Interactive

34,198 views 12 this week
3 commentsread comments
1 2 3 4 5
x 9
add to favorites
×
Save as Personal and add changes to this tab that will be seen only by you. Learn more ›
×
You can save this tab as Personal to edit and correct it or add notes. All changes will be seen only by you. Learn more »
launch autoscroll
font size
0
reset
how to read this tab
guitar tuner
edit
Autoscroll
slow
fast
+/-
esc
set tempo
stop
Author
Difficulty
Jay Chou - Dao Xiang (Paddy Fragrance)
周杰伦 - 稻香
Album: Capricorn


This is my first tab, so go easy. This sequence is replayed throughout the entire song.

|-----0-----|-----0---|-----0---|-----0---|-----0---|-----0---|
|-----0h2---|---------|-----0---|---0-0---|---------|---------|
|---------2-|-----1---|---------|---------|---1-2---|-----2---|
|---2-------|---2-----|---4-----|---------|---------|---2-----|
|-0---------|---------|---------|-4-------|-2-------|---------|
|-----------|-0-------|-2-------|---------|---------|-0-------|

|-----0-----|-------0---|
|-----0-----|-------0---|
|-------2h4-|-2---2-----|
|---2-------|---2-------|
|-0---------|-----------|
|-----------|-----------|

Please let me know if there are any errors. Enjoy!

            
            
Suggest correction
Creating personal tab
Creating personal tab
You can edit any tab online and save it as your Personal.

You can edit, replace or remove any tab part or add personal notes – all changes will be seen only by you.

Personal tabs can be accessed anytime from any device, even offline.
Learn more »
comments
print report bad tab
3 comments total.
+1 reply
uberguitarn00b 10 Oct 01, 2008 10:17 AM

Hi, thanks for the tab! I believe it is a 4 instead of a 1 in the fifth measure. I also think that it's played a bit differently the second time, like, there's this one, and then there's a second one that's a little different from the first, and then he goes back to the first version. Anyway, thanks! I couldn't have figured this out myself.

0 reply
uberguitarn00b 10 Oct 01, 2008 12:32 PM

4 instead of 1 on the string third from the bottom lol

0 reply
illumination 192 May 01, 2010 07:57 PM

I know this was posted ages ago but yea, what uberguitarn00b does seem a bit more correct but the rest seems overall quite accurate, except there is something that sounds a bit wrong but I can't quite pick out what. Sorry not helpful I know =( but yea it's quite accurate

guest
You may want to rate the tab now too:
select rating
Wanna post a correction for this tab? Suggest correction