Oops, an error
Loading. Please wait.

Shakedown Cruise bass

169 views 3 this week
no commentswrite comment
1 2 3 4 5
2 more votes to show rating
add to favorites
×
Save as Personal and add changes to this tab that will be seen only by you. Learn more ›
×
You can save this tab as Personal to edit and correct it or add notes. All changes will be seen only by you. Learn more »
launch autoscroll
font size
0
reset
guitar tuner
edit
Autoscroll
slow
fast
+/-
esc
set tempo
stop
Author
[Intro]

  (bass comes in 0:27)
G|---------------------------------------------------------------------------|
D|--------2------------2-------------2-------------2-------------------------|
A|------0------------0-------------0-------------0---------------------------|
E|--0-3-----0--0--0-3----0--0--0-3-----0--0--0-3-----0--0--------------------|


[Verse]

1. It was thirty days around the horn The captain says it's thirty-five more
2. They treat you like a dog But you're only human You miss your home Lord, You miss that woman
3. The fever's hot, the winds are blowin' cold The captain's crazy eye puts the fear in your soul

G|-------------------------0----------------------------------0---------------|
D|-------------0-------0-----2-2------------0-----------0--------2-2----------|
A|----------------0-0--------------------------0-0----------------------------|
E|-------0---------------------------0----------------------------------------|

1. The moon looks mean the crew ain't staying There's gonna be some blood Is what they're all saying 
2. The captain laughs he says, "You boys want some sex?"You can squeeze the sails, You can lick the decks
3. I heard somebody cryin' "Lord let this end You know I'll never go to sea again"

G|----------------------------------0-----------------------------------------------0--------------|
D|------------0-----------0-----------2-2--------------------0-----------0--------------2-2--------|
A|---------------0-0--------------------------------------------0-0--------------------------------|
E|---0-------------------------------------------0-------------------------------------------------|


[Chorus]

 1. It's a shakedown cruise And I was just another tool
 2. It was a shakedown cruise I guess I just was born to lose
 3. It was a shakedown cruise And now we're sendin' out the news

G|----------------2---2-2----------------2---2-2---------------------------------|
D|---------2----2---0-------------2----2---0-------------------------------------|
A|-------2----0-----------------2----0-------------------------------------------|
E|--0--0-------------------0--0--------------------------------------------------|

1.  There ain't no easy way out They're gonna shake you 'til you shout
2.  They tell you life is going cheap I got myself in pretty deep
3.  There ain't no victory at sea unless it's mutiny  

G|----------------2---2-2--------------------2---2-2---------------------------------|
D|---------2----2---0-----------------2----2---0-------------------------------------|
A|-------2----0---------------------2----0-------------------------------------------|
E|--0--0-----------------------0--0--------------------------------------------------|


[Bridge]                                           

G|------------2-------------------2-------------------------------------|
D|-------0---------2---------0---------2--------------------------------|
A|----------------------------------------------------------------------|
E|--0-------------------0-------------------0---------------------------|

  Star light lost in the night Drift away and it feels all right 
  Star light alone in the night Drift away and it feels all right
  I guess it feels all right

G|------------2------------------2-------------------------2--------------|
D|-------0---------2---------0---------2--------------0---------2---------|
A|------------------------------------------0-----------------------------|
E|--0-------------------0------------------------0-------------------0----|


[Outro]

   Now if I don't get off alive It's just as well I'll be waking up in heaven
   'Cause I've been through hell on this shakedown cruise They call it a shakedown cruise
   Shakedown, shakedown cruise Shakedown, shake it up and move Shakedown, shakin' in my shoes

G|---------------------------------------------------------------------------|
D|--------2------------2-------------2-------------2-------------------------|
A|------0------------0-------------0-------------0---------------------------|
E|--0-3-----0--0--0-3----0--0--0-3-----0--0--0-3-----0--0--------------------|

            
            
Suggest correction
Creating personal tab
Creating personal tab
You can edit any tab online and save it as your Personal.

You can edit, replace or remove any tab part or add personal notes – all changes will be seen only by you.

Personal tabs can be accessed anytime from any device, even offline.
Learn more »
Give kudos to tab author, rate the tab!
1 2 3 4 5
comments
print report bad tab
guest
You may want to rate the tab now too:
select rating
Wanna post a correction for this tab? Suggest correction