Oops, an error
Loading. Please wait.

Bust Your Windows tab

7,355 views 1 this week
no commentswrite comment
1 2 3 4 5
1 last vote to show rating
add to favorites
×
Save as Personal and add changes to this tab that will be seen only by you. Learn more ›
×
You can save this tab as Personal to edit and correct it or add notes. All changes will be seen only by you. Learn more »
launch autoscroll
font size
0
reset
how to read this tab
guitar tuner
edit
Autoscroll
slow
fast
+/-
esc
set tempo
stop
Author
hey there, this is my first tab, love the song,
once you have the chords, its cool to play around
with the picking/strumming.

-------------------------------------------------------------------------------
                             BUST YOUR WINDOWS-JAZMINE SULLIVAN
-------------------------------------------------------------------------------
Tabbed by:simba_kong
Email:respect_ma_gangsta@hotmail.com

http://www.jazminesullivanmusic.com/sitemenu

Tuning:standard

intro
e|---------------------------------------9-------------9-9h10p9---9----------|
B|--10-10-9-12-10-------10-9-12-10-----9--12-10-9-10-12---------12-----------|
G|----------------11-9-7-----------11-9--------------------------------------|
D|---------------------------------------------------------------------------|
A|---------------------------------------------------------------------------|
E|---------------------------------------------------------------------------|

verse
    (hook)
e|-----5-4-2-0-|------2------2------2------2-----------2------2---------4-4-4---4-----4--|
B|--5-7--------|-----2-2----2-2----3-3----3-2h3p2-----3-3----3-2h3p2----2-2-2--2-2---2---|
G|-6-----------|----2---2--2---2--2---2--2-------2---2---2--2-------2--------------------|
D|-------------|--------------------------------------------------------3-3-3-3---3-3----|
A|-------------|--4-------4------2------2-----------2------2-----------------------------|
E|-------------|-------------------------------------------------------------------------|


chords

e|------2------2------4------|
B|------2------3------2------|
G|------2------2-----(1)-----|
D|------4------4------3------|
A|------4------2------x------|
E|------2------2------x------|


like i said before you can mess around with strumming,
or the picking, and add in the hook before you start
playin the chords, up to you.
but thats the basics...

I bust the windows out your car
And no it didn't mend my broken heart
I'll probably always have these ugly scars
But right now I don't care about that part

I bust the windows out your car
After I saw you laying next to her
I didn't want to but I took my turn
I'm glad I did it cause you had to learn

I must admit it helped a little bit
To think of how you felt when you saw it
I didn't know that I had that much strength
But I'm glad you see what happens when

You see you can't just play with peoples feelings
Tell them you love them and don't mean it
You probably say that it was juvenile
But I think that I deserve to smile

I bust the windows out your car
You know I did it cause I left my mark
Wrote my initials with a crowbar
And then I drove out into the dark

I bust the windows out your car
You should feel lucky that that's all I did
After five whole years of this bullshit
Gave you all of me and you played with it

I must admit it helped a little bit
To think of how you felt when you saw it
I didn't know that I had that much strength
But I'm glad you see what happens when

You see you can't just play with peoples feelings
Tell them you love them and don't mean it
You'll probably say it was juveniel
But I think that I deserve to smile


Bust the windows out your car
But it don't comfort to my broken heart
You could never feel how I felt that day
Until that happens baby you don't know pain

Ooh yeah i did it (you should know it)
I ain't sorry (you deserved it)
After what you did to me (you deserved it)
I ain't sorry (no, no, ohh)

You broke my heart (so i broke ya car)
You caused me pain (so i did the same)
Even though what you did to me was much worse
I had to do something to make it hurt yeahh

Ooh but why am I still crying
Why am I the one who's still crying
Ooh ooh you really hurt me baby
You really, you really hurt me baby

(Hey, hey, hey, hey, hey, hey, hey)
Now watch me Yule.
Now watch me
I bust the windows out your car

| /  slide up
| \  slide down
| h  hammer-on
| p  pull-off
| ~  vibrato
| +  harmonic
| x  Mute note
===============================================================================

            
            
Suggest correction
Creating personal tab
Creating personal tab
You can edit any tab online and save it as your Personal.

You can edit, replace or remove any tab part or add personal notes – all changes will be seen only by you.

Personal tabs can be accessed anytime from any device, even offline.
Learn more »
Give kudos to tab author, rate the tab!
1 2 3 4 5
comments
print report bad tab
guest
You may want to rate the tab now too:
select rating
Wanna post a correction for this tab? Suggest correction