Oops, an error
Loading. Please wait.

Tadhana tab

322 views 9 this week
no commentswrite comment
1 2 3 4 5
3 more votes to show rating
add to favorites
×
Save as Personal and add changes to this tab that will be seen only by you. Learn more ›
×
You can save this tab as Personal to edit and correct it or add notes. All changes will be seen only by you. Learn more »
launch autoscroll
font size
0
reset
how to read this tab
guitar tuner
edit
Autoscroll
slow
fast
+/-
esc
set tempo
stop
Tadhana Tabs and Chords
Standard Tuning(Key of B)

Note: This Guitar Tab is Based on my Guitar Cover.

[Intro]
 B - Ebm
e|---------------------------------------|-------------------------------------------|
B|---------------------------------------|-------------------------------------------|
G|---------------------------------------|-------------------------------------------|
D|-9--x-x----9--x-x----9--x-x-----9--x-x-|-1--x-x----1--x-x----1--x-x----1--x-x------|
A|-9--x-x----9--x-x----9--x-x-----9--x-x-|-1--x-x----1--x-x----1--x-x----1--x-x------|
E|-7--x-x----7--x-x----7--x-x-----7--x-x-|-x---------x---------x---------x--x-x------|

e|---------------------------------------|-------------------------------------------|
B|---------------------------------------|-------------------------------------------|
G|---------------------------------------|-------------------------------------------|
D|-9--x-x----9--x-x----9--x-x-----9--x-x-|-1--x-x----1--x-x----1---------------------|
A|-9--x-x----9--x-x----9--x-x-----9--x-x-|-1--x-x----1--x-x----1---------------------|
E|-7--x-x----7--x-x----7--x-x-----7--x-x-|-x---------x---------x---------------------|

 B - Ebm
 Sa hindi inaaasahan
e|---------------------------------------|
B|-11-----9----9------7------------------|
G|-11----10---10------8------------------|
D|--9-----9----9------8------------------|
A|---------------------------------------|
E|---------------------------------------|

 B - Ebm
 Pagtagpo ng mga mundo
e|-------------------------------------------|
B|--11-----9-----7---------------------------|
G|--11----10-----8---------------------------|
D|---9-----9-----8---------------------------|
A|-------------------------------------------|
E|-------------------------------------------|

 B - Ebm
 May minsan lang na nagdugtong, 
e|---------------------------------------|
B|-11-----9----9------7------------------|
G|-11----10---10------8------------------|
D|--9-----9----9------8------------------|
A|---------------------------------------|
E|---------------------------------------|

 G#m - B
 Damang dama na ang ugong nito.
 B - C# - Ebm
 Di pa ba sapat ang sakit at lahat
e|---------------------------------------|--------------------------------------------|
B|---------------------------------------|--------------------------------------------|
G|-------------6------3----6---(3H)-4-3--|-------------3-----3---6---(3H)-4-3---------|
D|--------4-------4-4---4----4-----------|---------4-----4-4---4---4------------------|
A|--2-2-2---2----------------------------|---6-6-6---6--------------------------------|
E|---------------------------------------|--------------------------------------------|

 B - C# - Ebm
 Na hinding hindi ko ipararanas sa'yo
e|---------------------------------------|--------------------------------------------|
B|---------------------------------------|-----------------------(6H)-7-6---11-9-7----|
G|-------------6------3----6---(3H)-4-3--|-------------3-----3------------8-----------|
D|--------4-------4-4---4----4-----------|---------4-----4-4--------------------------|
A|--2-2-2---2----------------------------|---6-6-6---6--------------------------------|
E|---------------------------------------|--------------------------------------------|

 B - C# - Ebm
 Ibinubunyag ka ng iyong matang
e|---------------------------------------|--------------------------------------------|
B|---------------------------------------|--------------------------------------------|
G|-------------6------3----6---(3H)-4-3--|-------------3-----3---6---(3H)-4-3---------|
D|--------4-------4-4---4----4-----------|---------4-----4-4---4---4-----------4------|
A|--2-2-2---2----------------------------|---6-6-6---6--------------------------------|
E|---------------------------------------|--------------------------------------------|

 G#m - B
 Sumisigaw ng pag-sinta.
e|---------------------------------------|--------------------------------------------|
B|---------------------------------------|--------------------------------------------|
G|---------6--8---6--8---6--8------------|---4--------4-------------------------------|
D|-----6-6------6-------6----------------|---4--------4-------------------------------|
A|---------------------------------------|---2--------2-------------------------------|
E|---------------------------------------|---X--X--X--X-------------------------------|

B
Ba't di papatulan
C# - Ebm
Ang pagsuyong nagkulang
B
Tayong umaasang
C# - Ebm
Hilaga't kanluran
B
Ikaw ang hantungan
C# - Ebm
At bilang kanlungan mo

e|------2-4--2-4--2-4-4---4-6-4-2--------|
B|-2--4----------------------------------|
G|---------------------------------------|
D|---------------------------------------|
A|---------------------------------------|
E|---------------------------------------|

 G#m
 Ako ang sasagip sa'yo.
e|-------------------------------------------------|
B|-------------------------------------------------|
G|--------------------8-6------------3--(3H)-4-3---|
D|---4-4-6--6-8--8-9---------4-4-6--4------------4-|
A|-------------------------------------------------|
E|-4------------------------4----------------------|

 Saan nga ba patungo,
e|---------------------------------------|
B|---------------------------------------|
G|---------------------------------------|
D|---------------------------------------|
A|---2-----4-----6------------4----------|
E|------2-----4-----6-----2--------------|

 Nakayapak at nahihiwagaan na
e|--------------------------------------------|
B|--------------------------------------------|
G|--------------------------------------------|
D|--------------------------------------------|
A|----2------4-------6--------7--8-7----------|
E|--------2------4-------6--------------------|

 Ang bagyo ng tadhana ay
e|---------------------------------------|
B|---------------------------------------|
G|---------------------------------------|
D|---------------------------------------|
A|---2-----4-----6------------4----------|
E|------2-----4-----6-----2--------------|

G#m - B
Dinadala ako sa init ng bisig mo
B
Ba't di pa sabihin
Ebm
Ang hindi mo maamin
B - Ebm
Ipauubaya na lang ba 'to sa hangin


 'Wag mo ikatakot
e|---------------------------------------|
B|---------------------------------------|
G|---------------------------------------|
D|---------------------------------------|
A|---------------------------------------|
E|--(6)--(4)--(2)-----(6)--(4)--(2)------|

 Ang bulong ng damdamin mo
e|------2-4--2-4--2-4-4---4-6-4-2--------|
B|-2--4----------------------------------|
G|---------------------------------------|
D|---------------------------------------|
A|---------------------------------------|
E|---------------------------------------|

 Naririto ako't nakikinig sa'yo
e|-------------------------------------------------|
B|-------------------------------------------------|
G|--------------------8-6------------3--(3H)-4-3---|
D|---4-4-6--6-8--8-9---------4-4-6--4------------4-|
A|-------------------------------------------------|
E|-4------------------------4----------------------|

 Whoo... oohh... ho... ooohh... 
e|---------------------------------------|
B|---------------------------------------|
G|---------------------------------------|
D|---------------------------------------|
A|---2-----4-----6------------4----------|
E|------2-----4-----6-----2--------------|

 Whoo... oohh... ho... ooohh... 
e|--------------------------------------------|
B|--------------------------------------------|
G|--------------------------------------------|
D|--------------------------------------------|
A|----2------4-------6--------7--8-7----------|
E|--------2------4-------6--------------------|

 Whoo... oohh... ho... ooohh... 
e|---------------------------------------|
B|---------------------------------------|
G|---------------------------------------|
D|---------------------------------------|
A|---2-----4-----6------------4----------|
E|------2-----4-----6-----2--------------|

 G#m
 Whoo... ohhh... 
e|---------------------------------------|--------------------------------------------|
B|---------------------------------------|--------------------------------------------|
G|-------------6------3----6---(3H)-4-3--|-------------3-----3---6---(3H)-4-3---------|
D|--------4-------4-4---4----4-----------|---------4-----4-4---4---4------------------|
A|--2-2-2---2----------------------------|---6-6-6---6--------------------------------|
E|---------------------------------------|--------------------------------------------|


e|---------------------------------------|--------------------------------------------|
B|---------------------------------------|-----------------------(6H)-7-6---11-9-7----|
G|-------------6------3----6---(3H)-4-3--|-------------3-----3------------8-----------|
D|--------4-------4-4---4----4-----------|---------4-----4-4--------------------------|
A|--2-2-2---2----------------------------|---6-6-6---6--------------------------------|
E|---------------------------------------|--------------------------------------------|


e|---------------------------------------|--------------------------------------------|
B|---------------------------------------|--------------------------------------------|
G|-------------6------3----6---(3H)-4-3--|-------------3-----3---6---(3H)-4-3---------|
D|--------4-------4-4---4----4-----------|---------4-----4-4---4---4------------------|
A|--2-2-2---2----------------------------|---6-6-6---6--------------------------------|
E|---------------------------------------|--------------------------------------------|

 G#m to Ending
e|---------------------------------------|--------------------------------------------|
B|---------------------------------------|--------------------------------------------|
G|---------6--8---6--8---6--8------------|---4-----4-------4--------------------------|
D|-----6-6------6-------6----------------|---4-----4-------4--------------------------|
A|---------------------------------------|---2-----2-------2--------------------------|
E|---------------------------------------|---X-----x--x-x--X--------------------------|

e|--------------------------------------------|
B|--------------------------------------------|
G|--------------------------------------------|
D|---------------------------------------1----|
A|---------------------------------------1----|
E|--(7)-(6)-(4)-(6)-(4)-(2)-(4)-(2)------x----|



************************************

| x    Dead note
| (n)  Ghost note
| (    
| H)   
| X    

************************************

            
            
Suggest correction
Creating personal tab
Creating personal tab
You can edit any tab online and save it as your Personal.

You can edit, replace or remove any tab part or add personal notes – all changes will be seen only by you.

Personal tabs can be accessed anytime from any device, even offline.
Learn more »
Give kudos to tab author, rate the tab!
1 2 3 4 5
comments
print report bad tab
guest
Wanna post a correction for this tab? Suggest correction