Oops, an error
Loading. Please wait.

Monk Theme solo tab

version 1
version 1

Solo

Whole song

Interactive

857 views 9 this week
no commentswrite comment
1 2 3 4 5
3 more votes to show rating
add to favorites
×
Save as Personal and add changes to this tab that will be seen only by you. Learn more ›
×
You can save this tab as Personal to edit and correct it or add notes. All changes will be seen only by you. Learn more »
launch autoscroll
font size
0
reset
how to read this tab
guitar tuner
edit
Autoscroll
slow
fast
+/-
esc
set tempo
stop
Author
Difficulty
I recommend using the tab ver3 by PJVillanueva for the chorus, 
which is closest to the structure I used when figuring this tune
out. Also all chorus repetitions are omitted from this tab. You’ll
have to use the recording to piece it all together. I’m simply an
intermediate player, transcriber and beginner tabber so improvements
are likely/welcome. I’ve separated the phrases, not sure about the
timing.


Artist: Jeff Beal
Song: Full Monk Theme (guitar verses only)
Tabbed by: guitar jones (Johnny Proxy)

                                                                     
Verse 1
e|-------------------------------------|
B|-8-11-8-9---------------8------------|
G|----------8--------8-10---8----------|
D|------------9----9----------8--------|
A|--------------11---------------------|
E|-------------------------------------|


e|-------------------------------------|
B|-12/14-10-11h12p11----11-------------|
G|-------------------13----12----------|
D|----------------------------13-13----|
A|-------------------------------------|
E|-------------------------------------|


e|-------------------------------------|
B|-------------12-11-10----------------|
G|----10-12-13----------8-9-10---------|
D|-13----------------------------------|
A|-------------------------------------|
E|-------------------------------------|


e|-------------------------------------|
B|-------------------------------------|
G|-8-10p8------------------------------|
D|--------11-10------------------------|
A|--------------10-9-10-9-10-----------|
E|-------------------------------------|


e|----------8--------------------------|
B|--------9---11-9-8~------------------|
G|------8------------------------------|
D|-8/10--------------------------------|
A|-------------------------------------|
E|-------------------------------------|


e|-------------------------------------|
B|-------------------------------------|
G|-------------------------------------|
D|-8-10-11-10--------------------------|
A|------------11-8-11------------------|
E|-------------------------------------|


e|-------------------------------------|
B|-8-9-11-6/8--------6/8--------6/8----|
G|------------8-10-8-----8-10-8-------8|
D|----------------------------------8--|
A|-------------------------------------|
E|-------------------------------------|


Verse 2
e|-------------------------------------|
B|-8h9p8-------------------------------|
G|-------10-8--------------------------|
D|------------9-9-9p8------------------|
A|--------------------11-10------------|
E|-------------------------------------|

(arpeggiate and let ring as much as can)
e|-----------------------8~------------|
B|-----8-11-8-9-----9/11---------------|
G|---8----------8----------------------|
D|-8--------------9--------------------|
A|-------------------------------------|
E|-------------------------------------|


e|-------------------------------------|
B|-8/9-9~~~~-9/11-11~~~~~--------------|
G|-------------------------------------|
D|--------9~----------11~--------------|
A|-------------------------------------|
E|-------------------------------------|


e|-------------------------------------|
B|-8h9p8----8-9-8----------------------|
G|-------10-------10-9-----------------|
D|-------------------------------------|
A|-------------------------------------|
E|-------------------------------------|


e|-------------------------------------|
B|---------------8~--------------------|
G|-8-8----8-10p8-----------------------|
D|-----10------------------------------|
A|-------------------------------------|
E|-------------------------------------|


e|-------------------------------------|
B|-9/11-9-8h9p8----9-8h9p8----9-8~-----|
G|--------------10---------10----------|
D|-------------------------------------|
A|-------------------------------------|
E|-------------------------------------|


e|-------------------------------------|
B|-8-9-11-6/8--------6/8--------6/8----|
G|------------8-10-8-----8-10-8-----8~-|
D|-------------------------------------|
A|-------------------------------------|
E|-------------------------------------|

(Vibes solo etc)


        T  Thumb
        B  Bend
        R  Release
        /  Slide up
        \  Slide down
        H  Hammer-on
        P  Pull-off
        ~  Vibrato
        +  Harmonic
        x  Mute note
        .  Play note like a dot in standard notation
        ^  Ties two notes together
        (. Pause

            
            
Suggest correction
Creating personal tab
Creating personal tab
You can edit any tab online and save it as your Personal.

You can edit, replace or remove any tab part or add personal notes – all changes will be seen only by you.

Personal tabs can be accessed anytime from any device, even offline.
Learn more »
Give kudos to tab author, rate the tab!
1 2 3 4 5
comments
print report bad tab
guest
You may want to rate the tab now too:
select rating
Wanna post a correction for this tab? Suggest correction