Oops, an error
Loading. Please wait.

Brush With The Blues tab

version 1
version 1

Whole song

Interactive

15,047 views 6 this week
1 commentread comment
1 2 3 4 5
x 5
add to favorites
×
Save as Personal and add changes to this tab that will be seen only by you. Learn more ›
×
You can save this tab as Personal to edit and correct it or add notes. All changes will be seen only by you. Learn more »
launch autoscroll
font size
0
reset
how to read this tab
guitar tuner
backing track
0:00
0:00
edit
Autoscroll
slow
fast
+/-
esc
set tempo
stop
From : Jean-Pierre Trolet
You will find a MP3 (1,4 Mb) recorded by myself to illustrate the tab and how to contact
me on my webpage here: http://jptrol.free.fr/mus/bwtb/index.htm


                           BRUSH WITH THE BLUES - JEFF BECK
                           ( from his album WHO ELSE - 1999)


This allows to make a good start with that tune very rich in wonderful blues sentences.
Sounds easy to tab, but as soon as you play it, you feel how much the Master's touch
is missing. As it is illusory to tab Jeff's full delirium it is a good opportunity to
improvise a solo in minor pentatonic flat B though the Master does not limit himself to
5 notes of course ! If necessary you will find all the positions on the neck for that
scale on my website whose URL is here above.


[Intro] (Bass only)

   Bass
Gb|-------------------------------------|-------------------------------------|
Db|-------------------------------------|-------------------------------------|
Ab|-------------------------(7--7-7--7-7|-7-7--7)-----------------------------|
Eb|---7---7-7--7-7--7-7--7---5--5-5--5-5|-5-5--5----0--0-0--0-0--0-0----------|
     (Bb)                   (Ab)
   Bass
Gb|-------------------------------------|-------------------------------------|
Db|-----------------2-------------------|-------------------------------------|
Ab|--------------2----------------------|-------------------------------------|
Eb|----0-0-3h4--------------------------|-------------------------------------|


  Guitar          ^^^^              ^^^^
E|-------------------------------------|-------------------------------------|
B|-------------------------------------|-------------------------------------|
G|----------------6-----------------6--|-------------------------------------|
D|----------6--8-------------6--8------|---8-----------8---------10-----5b\--|
A|----6h-8-------------6h-8------------|------8--9--10--------6------6-------|
E|-------------------------------------|-------------------------------------|

   Bass
Gb|-------------------------------------|-------------------------------------|
Db|-------------------------------------|-------------------------------------|
Ab|---(9--9-9--9-9--9-9---9)--------(7--|-7-7--7-7--7-7)--(2--2-2--2-2--2-2)--|
Eb|----7--7-7--7-7--7-7---7----------5--|-5-5--5-5--5-5----0--0-0--0-0--0-0---|

  Guitar                         ^^^^           ^^^^
E|-------------------------------------|-------------------------------------|
B|-------------------------------------|---------------(see variant below)---|
G|------------------------------6------|--------6----------------------------|
D|------------------------6--8---------|--6--8---------6h8p6----------8------|
A|-------------------6h-8----------6h-8|----------------------8-9-10---------|
E|-------------------------------------|-------------------------------------|

   Bass
Gb|-------------------------------------|-------------------------------------|
Db|-------------------------------------|-------------------------------------|
Ab|--------------------(9--9-9--9-9--9-9|--9)---(7--7-7--7-7--7-7-7-2--2-2----|
Eb|---4--4--5--5---6-6--7--7-7--7-7--7-7|--7-----5--5-5--5-5--5-5-5-0--0-0----|


  Guitar
E|-------------------------------------|-------------------------------------|
B|-------------------------------------|-------------------------------------|
G|-------------------------------------|-------------------------------------|
D|-------------------------------------|-------8b/\-6-----8------------------|
A|-----4h5--4b\------------------------|---------------8---------------------|
E|-------------------------------------|-------------------------------------|

   Bass
Gb|-------------------------------------|-------------------------------------|
Db|-------------------------------------|-------------------------------------|
Ab|----2-2-2-2)-------------------------|-(4--4-4--4-4--4-4)------------------|
Eb|----0-0-0-0----4-4--5-5--6-6---------|--2--2-2--2-2--2-2-------------------|


  Guitar
       ^^^^  ^^^^       ^^^^              ^^^^        ^^^^
E|-------------------------------------|-------------------------------------|
B|-------------------------------------|-----------------------9\__----------|
G|-----10----------6---6---------------|--7-----------8-------10\__----------|
D|--8----------------8-----------------|--6-----6\4--------------------------|
A|-------------------------------------|-------------------------------------|
E|-------------------------------------|-------------------------------------|

   Bass
Gb|-------------------------------------|-------------------------------------|
Db|-------------------------------------|-------------------------------------|
Ab|-------------------------------------|-------------------------------------|
Eb|----5-5---------6-6----------7-------|--7-7---7-7--7-7------12--12--12--12-|


E|-------------------------------------|-------------------------------------|
B|-------------------------------------|-------------------------------------|
G|-------------------------------------|-------------------------------------|
D|-------------------------------------|-------------------------------------|
A|-------------------------------------|-------------------------------------|
E|-------------------------------------|-------------------------------------|

   Bass
Gb|-------------------------------------|-------------------------------------|
Db|-------------------------------------|-------------------------------------|
Ab|------------------(2--2-2-2-2-2)-----|-------------------------------------|
Eb|----12--12--12--12-0--0-0-0-0-0------|-------------------------------------|
                                  etc...

   Guitar    (VARIANT)       ^^^^
E|-------------------------------------|-------------------------------------|
B|-------------------------------------|-------------------------------------|
G|---------------------8\6-------------|-------------------------------------|
D|------6h8p6----------------8---------|----------10-9-8---------------------|
A|-------------8-9-10------------------|-------------------------------------|
E|-------------------------------------|----9h10-----------------------------|


************************************

| h     Hammer-on
| p     Pull-off
| b/\   Bend up and down
| ^^^^  Vibrato/tremolo
| \__   Depressing vibrato
| \     Slide down

************************************

            
            
Suggest correction
Creating personal tab
Creating personal tab
You can edit any tab online and save it as your Personal.

You can edit, replace or remove any tab part or add personal notes – all changes will be seen only by you.

Personal tabs can be accessed anytime from any device, even offline.
Learn more »
comments
print report bad tab
1 comment total.
+1 reply
trebor1 199 Oct 30, 2008 12:58 PM

pretty cool tab shame it isnt full but has given me knowledge of playing it lol

guest
You may want to rate the tab now too:
select rating
Wanna post a correction for this tab? Suggest correction