Oops, an error
Loading. Please wait.

Forget Her tab

version 1
version 1

Whole song

Interactive

78,803 views 105 this week
no commentswrite comment
1 2 3 4 5
x 8
add to favorites
×
Save as Personal and add changes to this tab that will be seen only by you. Learn more ›
×
You can save this tab as Personal to edit and correct it or add notes. All changes will be seen only by you. Learn more »
launch autoscroll
font size
0
reset
how to read this tab
guitar tuner
backing track
0:00
0:00
edit
Autoscroll
slow
fast
+/-
esc
set tempo
stop
Author
This I based on William Smith's tab of the same song, but modified it quite a bit.
It's not perfect, so you might want to tweak it a bit, but it's pretty close.
Hopefully i'll get the solo on soon, too. any questions, comments,etc, forward to
kris_man1983@yahoo.com.au


[Intro sequence]

e|--------------|--------------|    x 4
B|--------------|--------------|
G|------2-----2-|-----0--------|
D|----2-----2---|---0-------3--|
A|--0-----0-----|---------3----|
E|--------------|-0-----3------|


[Verse]

    Am
e|---------0-------------0-------|   x 2
B|---------—-1-------------1-----|
G|-------2-----2-------2-----2---|
D|-----2-------------2-----------|
A|---0-------------0-------------|
E|-------------------------------|


    Em
e|-------------------------------|   x 2
B|--------0--------------0-------|
G|--------0--------------0-------|
D|------2---2----------2---2-----|
A|----2-------2------2-------2---|
E|--0--------------0-------------|


(Repeat above pattern)


[Chorus]

     F
e|--------------------------|  x 2
B|--8--6----5--5--5---5--6--|
G|--5--5----5--7--5---5--5--|
D|--7--7—---7--7--7---7--7--|
A|-(8)----------------------|
E|--------------------------|


    Em
e|--------------------------|  x 2
B|--7-----------------------|
G|--4-----------------------|
D|--5-----------------------|
A|--7-----------------------|
E|--------------------------|

     F
e|--------------------------|  x 2
B|--8--6----5--5--5---5--6--|
G|--5--5----5--7--5---5--5--|
D|--7--7—---7--7--7---7--7--|
A|-(8)----------------------|
E|--------------------------|


    Gmaj7
e|--------------------------|
B|--7-----------------------|
G|--7-----------------------|
D|--9-----------------------|
A|--10----------------------|
E|--------------------------|

    Gmaj7
e|--------------------------|
B|--7-----------------------|
G|--7-----------------------|
D|--9-----------------------|
A|--10----------------------|
E|-(7)----------------------|

e|--------------------------|
B|--------------------------|
G|------0-------------------|
D|----0--------3------------|
A|-----------3--------------|
E|--0------3----------------|


[Play intro again]


[Verse 2]


[Chorus 2]


[Solo rhythm, pt.1]
 
e|--------5-----------5-----|--------0-----------0-----|
B|--------5-----------5-----|--------0-----------0-----|
G|--------5-----------5-----|--------0-----------0-----|
D|------7-----------7-------|------2-----------2-------|
A|----7-----------7---------|----2-----------2---------|
E|--5-----------5-----------|--0-----------0-----------|


[Solo rhythm, pt.2]

(Chorus chords)


[Bridge]

(Intro chords, followed by)

e|---------------|  x 4
B|---------------|
G|---------------|
D|------6--------|
A|----7----------|
E|--4------------|


[Outro]

(Repeat part 2 of chorus to fade)


Structure:

Intro - Verse 1 - Chorus - Interlude/Intro - Verse 2 - Chorus - Solo (Verse & Chorus) - 
- Chorus - Chorus - Outro

Fill 1: (straight after "her love is a rose dead and dying" and "all full of wine the 
before her")

    Em
      ..... let ring
e|--------3-----------------|  x 2
B|--1-3/5---3-1-1-3---------|
G|--------------------------|
D|--------------------------|
A|--------------------------|
E|--------------------------|



************************************

| (n)  Ghost note
| /    Slide up 

************************************

            
            
Suggest correction
Creating personal tab
Creating personal tab
You can edit any tab online and save it as your Personal.

You can edit, replace or remove any tab part or add personal notes – all changes will be seen only by you.

Personal tabs can be accessed anytime from any device, even offline.
Learn more »
comments
print report bad tab
guest
You may want to rate the tab now too:
select rating
Wanna post a correction for this tab? Suggest correction