Oops, an error
Loading. Please wait.
We have an official Hallelujah tab made by UG professional guitarists. Check out the tab »
×

Hallelujah ukulele

version 3
version 3

Whole song

  • This is a Jeff Buckley-type version of Hallelujah,... Show more
307 views 12 this week
no commentswrite comment
1 2 3 4 5
x 4
add to favorites
×
Save as Personal and add changes to this tab that will be seen only by you. Learn more ›
×
You can save this tab as Personal to edit and correct it or add notes. All changes will be seen only by you. Learn more »
launch autoscroll
font size
0
reset
transpose
0
reset
simplify chords
display chords
guitar tuner
edit
Autoscroll
slow
fast
+/-
esc
set tempo
stop
About this tab version
This is a Jeff Buckley-type version of Hallelujah, arranged for low G uke tuning. It only really sounds good on a ukulele with a low G string (the Aquila non-wound red low G strings are long-lived, sound good, and can be bought singly). Was this info helpful? Yes No
Strumming
There is no strumming pattern for this song yet. and get +5 IQ
Notes:
- This version uses the barre version of C: 5433
- Also use the intro as an interlude between the chorus and verse.

[Intro]
   C             Am            C             Am     
A|-------3-----|-------0-----|-------3-----|-------0-----|
E|-----3---3---|-----0---0---|-----3---3---|-----0---0---|
C|---4---------|---0---------|---4---------|---0---------|
G|-5---------4-|-2---------4-|-5---------4-|-2---------4-|

[Verse]
   C             Am            C             Am     
A|-------3-----|-------0-----|-------3-----|-------0-----|
E|-----3---3---|-----0---0---|-----3---3---|-----0---0---|
C|---4---------|---0---------|---4---------|---0---------|
G|-5---------4-|-2---------4-|-5---------4-|-2---------4-|

   F                   G       C             G           
A|-------0-----|-------2-----|-------3-----|-------2-----|
E|-----1---0---|-----0---3---|-----3---3---|-----3---3---|
C|---0-------0-|---0-------2-|---4-------4-|---2-------2-|
G|-2-----------|-2-----------|-5-----------|-0-----------|

   C             F     G       Am            F      
A|-------3-----|-------2-----|-------0-----|-------0-----|
E|-----3---3---|-----0---3---|-----0---0---|-----1---1---|
C|---4-------4-|---0-------2-|---0-------0-|---0-------0-|
G|-5-----------|-2-----------|-2-----------|-2-----------|

   G             E7            Am                           
A|-------2-----|-------2-----|-------0-----|-------2-----|
E|-----3---3---|-----0---0---|-----0---0---|-----0---0---|
C|---2-------2-|---2-------2-|---0-------0-|---0-------0-|
G|-0-----------|-1-----------|-2-----------|-2-----------|

[Chorus]
   F                           Am                           
A|-------0-----|-------0-----|-------0-----|-------0-----|
E|-----1---1---|-----1---1---|-----0---0---|-----0---0---|
C|---0-------0-|---0-------0-|---0-------0-|---0-------0-|
G|-2-----------|-2-----------|-2-----------|-2-----------|

   F                           C             G                
A|-------0-----|-------0-----|-------3-----|-------2-----|
E|-----1---1---|-----1---1---|-----3---3---|-----3---3---|
C|---0-------0-|---0-------0-|---4-------4-|---2-------3-|
G|-2-----------|-2-----------|-5-----------|-0-----------|

            
            
Suggest correction
Creating personal tab
Creating personal tab
You can edit any tab online and save it as your Personal.

You can edit, replace or remove any tab part or add personal notes – all changes will be seen only by you.

Personal tabs can be accessed anytime from any device, even offline.
Learn more »
comments
print report bad tab
guest
You may want to rate the tab now too:
select rating
Wanna post a correction for this tab? Suggest correction