Oops, an error
Loading. Please wait.

From Shadows tab

2,047 views 33 this week
2 commentsread comments
1 2 3 4 5
x 3
add to favorites
×
Save as Personal and add changes to this tab that will be seen only by you. Learn more ›
×
You can save this tab as Personal to edit and correct it or add notes. All changes will be seen only by you. Learn more »
launch autoscroll
font size
0
reset
how to read this tab
guitar tuner
edit
Autoscroll
slow
fast
+/-
esc
set tempo
stop
[Intro/Chorus]
e|-----5----5-5-----5-5------5----5-5-----5-5---|---8----8-8-----8-8-----8-----8-8-----8-8----------------|
B|-----6----6-6-----6-6------6----6-6-----6-6---|---9----9-9-----9-9-----9-----9-9-----9-9----------------|
G|-----5----5-5-----5-5------5----5-5-----5-5---|---8----8-8-----8-8-----8-----8-8-----8-8----------------|
D|-----7----7-7-----7-7------7----7-7-----7-7---|--10---10-10---10-10---10----10-10---10-10---------------|
A|-----5----5-5-----5-5------5----5-5-----5-5---|---8----8-8-----8-8-----8-----8-8-----8-8----------------|
D|----------------------------------------------|---------------------------------------------------------|

e|-----8----8-8-----8-8------8----8-8-----8-8---|---8----8-8-----8-8-----10---10-10---10-10----------------|
B|-----8----8-8-----8-8------8----8-8-----8-8---|---9----9-9-----9-9-----11---11-11---11-11----------------|
G|-----8----8-8-----8-8------8----8-8-----8-8---|---8----8-8-----8-8-----10---10-10---10-10----------------|
D|-----8----8-8-----8-8------8----8-8-----8-8---|--10---10-10---10-10----12---12-12---12-12----------------|
A|----10---10-10---10-10----10---10-10---10-10--|---8----8-8-----8-8-----10---10-10---10-10----------------|
D|----------------------------------------------|----------------------------------------------------------|

[Verse]
e|----2--2-------2--2---|----2--2-------2--2----|-----0--0------0--0---|---2---4---2---0---2---0---2---2--|
B|----3--3-------3--3---|----3--3-------3--3----|-----1--1------1--1---|---3---5---3---1---3---1---3---3--|
G|----2--2-------2--2---|----2--2-------2--2----|-----0--0------0--0---|---2---4---2---0---2---0---2---2--|
D|----4--4-------4--4---|----4--4-------4--4----|-----2--2------2--2---|---4---6---4---2---4---2---4---4--|
A|----2--2-------2--2---|----2--2-------2--2----|-----0--0------0--0---|---2---4---2---0---2---0---2---2--|
D|----------------------|-----------------------|----------------------|----------------------------------|

[Pre-chorus]
e|-----2----2-2-----2-2------4----4-4-----4-4---|---2----2-2-----2-2-----0-----0-0-----0-0-------------------|
B|-----3----3-3-----3-3------5----5-5-----5-5---|---3----3-3-----3-3-----1-----1-1-----1-1-------------------|
G|-----2----2-2-----2-2------4----4-4-----4-4---|---2----2-2-----2-2-----0-----0-0-----0-0-------------------|
D|-----4----4-4-----4-4------6----6-6-----6-6---|---4----4-4-----4-4-----2-----2-2-----2-2-------------------|
A|-----2----2-2-----2-2------4----4-4-----4-4---|---2----2-2-----2-2-----0-----0-0-----0-0-------------------|
D|----------------------------------------------|------------------------------------------------------------|

e|-----2----2-2-----2-2------4----4-4-----4-4---|---2----2-2-----2-2-----0-----0-0-----0-0-------------------|
B|-----3----3-3-----3-3------5----5-5-----5-5---|---3----3-3-----3-3-----1-----1-1-----1-1-------------------|
G|-----2----2-2-----2-2------4----4-4-----4-4---|---2----2-2-----2-2-----0-----0-0-----0-0-------------------|
D|-----4----4-4-----4-4------6----6-6-----6-6---|---4----4-4-----4-4-----2-----2-2-----2-2-------------------|
A|-----2----2-2-----2-2------4----4-4-----4-4---|---2----2-2-----2-2-----0-----0-0-----0-0-------------------|
D|----------------------------------------------|------------------------------------------------------------|

e|------0----0------0-0-0-----0----0-----0-0-0--|---0----0-------0-0-0------0----0------0-0-0---------------|
B|------1----1------1-1-1-----1----1-----1-1-1--|---1----1-------1-1-1------1----1------1-1-1---------------|
G|------0----0------0-0-0-----0----0-----0-0-0--|---0----0-------0-0-0------0----0------0-0-0---------------|
D|------2----2------2-2-2-----2----2-----2-2-2--|---2----2-------2-2-2------2----2------2-2-2---------------|
A|------0----0------0-0-0-----0----0-----0-0-0--|---0----0-------0-0-0------0----0------0-0-0---------------|
D|----------------------------------------------|-----------------------------------------------------------|

e|------0----0------0-0-0-----0----0-----0-0-0--|---0--0-----0---0-----|
B|------1----1------1-1-1-----1----1-----1-1-1--|---1--1-----1---1-----|
G|------0----0------0-0-0-----0----0-----0-0-0--|---0--0-----0---0-----|
D|------2----2------2-2-2-----2----2-----2-2-2--|---2--2-----2---2-----|
A|------0----0------0-0-0-----0----0-----0-0-0--|---0--0-----0---0-----|
D|----------------------------------------------|----------------------|



[Bridge]
e|------------------------------------------------|----------------------------------------------------|
B|------------------------------------------------|----------------------------------------------------|
G|---8--8-----8--8--8--------8---8-----8--8--8----|--10-10-—-----10—10—10---------10-10-------10-10-10-|
D|---6--6-----6--6--6--------6---6-----6--6--6----|---8--8--------8--8--8----------8--8-------8--8--8--|
A|---6--6-----6—-6--6--------6---6-----6--6--6----|---8--8--------8--8--8----------8--8-------8--8--8--|
D|---6--6-----6--6--6--------6---6-----6--6--6----|---8--8--------8--8--8----------8--8-------8--8--8--|

e|------------------------------------------------|----------------------------------------------------|
B|------------------------------------------------|----------------------------------------------------|
G|---8--8-----8--8--8--------8---8-----8--8--8----|--10-10-—-----10—10—10---------10-10-------10-10-10-|
D|---6--6-----6--6--6--------6---6-----6--6--6----|---8--8--------8--8--8----------8--8-------8--8--8--|
A|---6--6-----6—-6--6--------6---6-----6--6--6----|---8--8--------8--8--8----------8--8-------8--8--8--|
D|---6--6-----6--6--6--------6---6-----6--6--6----|---8--8--------8--8--8----------8--8-------8--8--8--|


e|-----------------------------------------|--------------------------------------------|
B|----3--3-----3-3-3------3--3-----3-3-3---|--------------------------------------------|
G|----2--2-----2-2—2------2--2-----2-2-2---|----4--4------4-4-4-------4--4------4-4-4---|
D|----0--0-----0-0-0------0--0-----0-0-0---|----2--2------2-2-2-------2--2------2-2-2---|
A|----0--0-----0-0-0------0--0-----0-0-0---|----2--2------2-2-2-------2--2------2-2-2---|
D|----0--0-----0-0-0------0--0-----0-0-0---|----2--2------2-2-2-------2--2------2-2-2---|

e|------------------------------------------|-------------------------------------------|
B|----3--3-----3-3-3------3--3-----3-3-3----|-------------------------------------------|
G|----2—-2-----2—2—2------2--2-----2—2—2----|---4--4------4-4-4-------4--4------4-4-4---|
D|----0--0-----0-0-0------0--0-----0-0-0----|---2--2------2-2-2-------2--2------2-2-2---|
A|----0--0-----0-0-0------0--0-----0-0-0----|---2--2------2-2-2-------2--2------2-2-2---|
D|----0--0-----0-0-0------0--0-----0-0-0----|---2--2------2-2-2-------2--2------2-2-2---|

[Interlude Riff] (palm-mute all 0's)


e|-------------------------------------------------------------------------------------------|
B|-------------------------------------------------------------------------------------------|
G|-------------------------------------------------------------------------------------------|
D|-------------------------------------------------------------------------------------------|
A|-------------------------------------------------------------------------------------------|
D|-----10h12---0---10h12-----0-----10h12-----0-----10h12-----0-----10h12-----0---0-----------|

e|-------------------------------------------------------------------------------------------|
B|-------------------------------------------------------------------------------------------|
G|-------------------------------------------------------------------------------------------|
D|-------------------------------------------------------------------------------------------|
A|-------------------------------------------------------------------------------------------|
D|-----10h12---0---10h12-----0-----10h12-----0-----10h12-----0-----10h12----*555444333222*---|
                                                                          

e|-------------------------------------------------------------------------------------------|
B|-------------------------------------------------------------------------------------------|
G|-------------------------------------------------------------------------------------------|
D|-------------------------------------------------------------------------------------------|
A|-------------------------------------------------------------------------------------------|
D|-----10h12---0---10h12-----0-----10h12-----0-----10h12-----0-----10h12-----0---0-----------|

e|-------------------------------------------------------------------------------------------|
B|-------------------------------------------------------------------------------------------|
G|-------------------------------------------------------------------------------------------|
D|-------------------------------------------------------------------------------------------|
A|-------------------------------------------------------------------------------------------|
D|-----10h12---0---10h12-----0-----10h12-----0-----10h12-----0-----10h12-----000---000-------|

[End Solo]
e|----------20-|----17--20-|---22----22b-|-22-22---18-18--------------------------|
B|----/17------|-----------|-------------|----------------------11b(13)—11b(13)---|
G|-------------|-----------|-------------|----------------------------------------|
D|-------------|-----------|-------------|----------------------------------------|
A|-------------|-----------|-------------|----------------------------------------|
D|-------------|-----------|-------------|----------------------------------------|

e|----------------------------------------------------------------|
B|-----9-11-9h10h11p10p9------------------------------------------|
G|-----------------------10-8-9h10h9p8--9p8-----------------------|
D|------------------------------------------10--8--8--------------|
A|----------------------------------------------------------------|
D|----------------------------------------------------------------|

e|-----------20-|----17--20-|--22---22b-|-22-22---18-18--------------------------|
B|----/17-------|-----------|-----------|----------------------------------13h15h|
G|--------------|-----------|-----------|-------------------------12h13h15-------|
D|--------------|-----------|-----------|----------------12h13h15----------------|
A|--------------|-----------|-----------|----------------------------------------|
D|--------------|-----------|-----------|----------------------------------------|

e|------------------------------------------13h15h|16p15p13----------------|
B|16p15p13-------------------------13h15h16-------|---------16p15p13-------|
G|---------15p13p12-------12h13h15----------------|------------------15p13-|
D|------------------15p13-------------------------|------------------------|
A|------------------------------------------------|------------------------|
D|------------------------------------------------|------------------------|

e|---------13h15h16-16/18|------18-18--18------15-16-----|------------|
B|13h15h16---------------|----------------------------18b|r18---18----|
G|-----------------------|-------------------------------|------------|
D|-----------------------|-------------------------------|------------|
A|-----------------------|-------------------------------|------------|
D|-----------------------|-------------------------------|------------|

e|--------|-------------------------------|--------------|--------------|
B|--------|-------------------------------|--------------|--------------|
G|-----17b|r17----15--------12--15---15b17|----------\9~-|--------------|
D|--------|-------------------------------|--------------|--------------|
A|--------|-------------------------------|--------------|--------------|
D|--------|-------------------------------|--------------|-0------------|
                                                          (let ring)


************************************

| h   Hammer-on
| p   Pull-off
| b   Bend
| br  Bend release
| /   Slide up
| \   Slide down
| ~   Vibrato
| PM  Palm mute
| *   Natural Harmonics

************************************

            
            
Suggest correction
Creating personal tab
Creating personal tab
You can edit any tab online and save it as your Personal.

You can edit, replace or remove any tab part or add personal notes – all changes will be seen only by you.

Personal tabs can be accessed anytime from any device, even offline.
Learn more »
Give kudos to tab author, rate the tab!
1 2 3 4 5
comments
print report bad tab
2 comments total.
0 reply
AdamGuion 435 Oct 13, 2016 07:12 PM

Woops, sorry about how the formatting for the corrections came out. It kinda screwed up some of the parts that repeat itsself. I'll also try to figure out some of the smaller stuff when I have the time.

0 reply
karkitten97 10 Sep 08, 2017 02:03 PM

hi wow this is pretty impossible

guest
You may want to rate the tab now too:
select rating
Wanna post a correction for this tab? Suggest correction