Oops, an error
Loading. Please wait.

Clean Break chords

139 views 3 this week
no commentswrite comment
1 2 3 4 5
2 more votes to show rating
add to favorites
×
Save as Personal and add changes to this tab that will be seen only by you. Learn more ›
×
You can save this tab as Personal to edit and correct it or add notes. All changes will be seen only by you. Learn more »
launch autoscroll
font size
0
reset
transpose
0
reset
simplify chords
display chords
guitar tuner
edit
Autoscroll
slow
fast
+/-
esc
set tempo
stop
Author
Difficulty
Strumming
There is no strumming pattern for this song yet. and get +5 IQ
[Intro]
(improvise around the following chords and melody, the timing is notated only approximately)

        Dm          Gm6         Bbdim7      Dm
e|------------------3--------------------0-----------------------|
B|------------3-----3-----------------------3--------------------|
G|------2--------2--3-----------0-----0-----2--2-----------------|
D|0-2-3-3--0--------2-----0-2-3----2--------3-----0-------0--2-3-|
A|---------------------------------1-----------------------------|
E|---------------------------------------------------------------|

  Dm          Bbdim7           A       A+  A7  Dm
e|-----------------0---------------0---1---0---------------------|
B|------3-----2--------3-------2---------------3-----------------|
G|2--------2--3------------3---2-------------------2-------------|
D|3--0--------2----------------2-----------------------3---2---0-|
A|---------------------------------------------------------------|
E|---------------------------------------------------------------|


[Chorus]
          Dm    Gm
Make it a clean break
          A7   Dm
Make it a fast cut
            Dm       Gm
Don't wanna feel the ache
            A7       Dm
Don't wanna keep the rot

[Verse]
Gm                       Dm
Parts of me I don't need any more can go
      Gm                            A7
Don't bother with the table, we can do it on the floor
A7
God knows I am sure

[Chorus]
          Dm    Gm
Make it a clean break
          A7   Dm
Make it a fast cut
            Dm       Gm
Don't wanna feel the ache
            A7       Dm
Don't wanna keep the rot

[Verse]
   Gm                           Dm
No need for anaesthetic, oh and no more last regrets
     Gm                              A7
Just sterilise the scalpel and let's get this over with
          A7
We've got muscle to transect

[Solo]
(2x)
Dm Gm A7 Dm

[Chorus]
   Gm                            Dm
If I come to, and still feel you creeping in my skin
     Gm                             A7
It's back I lie under the knife and start over again
       A7
Can't abide no phantom limbs

[Chorus]
(3x)
          Dm    Gm
Make it a clean break
          A7   Dm
Make it a fast cut
            Dm       Gm
Don't wanna feel the ache
            A7       Dm
Don't wanna keep the rot

            
            
Suggest correction
Creating personal tab
Creating personal tab
You can edit any tab online and save it as your Personal.

You can edit, replace or remove any tab part or add personal notes – all changes will be seen only by you.

Personal tabs can be accessed anytime from any device, even offline.
Learn more »
Give kudos to tab author, rate the tab!
1 2 3 4 5
comments
print report bad tab
guest
You may want to rate the tab now too:
select rating
Wanna post a correction for this tab? Suggest correction