Oops, an error
Loading. Please wait.

New Blood tab

76 views 3 this week
no commentswrite comment
1 2 3 4 5
3 more votes to show rating
add to favorites
×
Save as Personal and add changes to this tab that will be seen only by you. Learn more ›
×
You can save this tab as Personal to edit and correct it or add notes. All changes will be seen only by you. Learn more »
launch autoscroll
font size
0
reset
how to read this tab
guitar tuner
edit
Autoscroll
slow
fast
+/-
esc
set tempo
stop
Author
During the verse strum once down for the firsttwo lines then
the strumming pattern is played playing up-strokes in an almost reggae style
- If you find it easier, can put a capo on 2 and play Em, G etc...

[Intro]
e|---  14--12---------------------------------12-----12----------------------|
B|10/14--14--12h14h12-10-12----10----10h12-14----14~----15-14~---------------|
G|--------------------------11----11-----------------------------------------|
D|---------------------------------------------------------------------------|
A|---------------------------------------------------------------------------|
E|---------------------------------------------------------------------------|

e|------14----12---------------------------------12--------------------------|
B|10/14----14----12h1412-10-12----10----10h12-14----15-14~-------------------|
G|-----------------------------11----11--------------------------------------|
D|---------------------------------------------------------------------------|
A|---------------------------------------------------------------------------|
E|---------------------------------------------------------------------------|

[Verse]
e|-9---------------5----------------------------------------------------------|
B|-10--------------5----------------------------------------------------------|
G|-11--------------6----------------------------------------------------------| x4
D|-11--------------7----------------------------------------------------------|
A|-9---------------7----------------------------------------------------------|
E|-----------------5----------------------------------------------------------|

It doesn't seem long ago, we were last out in this club you know
dancing and telling the same jokes
and i go back again and i am sick of working the nine to five
and of long nights and high fives, broken glass and black eyes

[Chorus]
e|-2--------------9--------7-------------------------------------------------|
B|-3--------------10-------9-------------------------------------------------|
G|-4--------------11-------x-------------------------------------------------|
D|-4--------------11-------9-------------------------------------------------|
A|-2--------------9--------7-------------------------------------------------|
E|---------------------------------------------------------------------------|

And its the same old faces, up in that club
the dj has had enough of us, the town needs new blood
and its the same old faces up in that club
divine intervention from above, the town needs new blood
the town needs new blood

e|---  14--12---------------------------------12-----12----------------------|
B|10/14--14--12h14h12-10-12----10----10h12-14----14~----15-14~---------------|
G|--------------------------11----11-----------------------------------------|
D|---------------------------------------------------------------------------|
A|---------------------------------------------------------------------------|
E|---------------------------------------------------------------------------|

e|------14----12---------------------------------12--------------------------|
B|10/14----14----12h1412-10-12----10----10h12-14----15-14~-------------------|
G|-----------------------------11----11--------------------------------------|
D|---------------------------------------------------------------------------|
A|---------------------------------------------------------------------------|
E|---------------------------------------------------------------------------|

[Verse 2]
e|-9---------------5----------------------------------------------------------|
B|-10--------------5----------------------------------------------------------|
G|-11--------------6----------------------------------------------------------| x4
D|-11--------------7----------------------------------------------------------|
A|-9---------------7----------------------------------------------------------|
E|-----------------5----------------------------------------------------------|

I met a new friend at the bar, hes wide eyed and spilling his heart
and im looking for a chance to depart
cos all i really want to do ios find that girl i met last week
the one who kissed me like it would never end
the one who swore she would never see me again

[Chorus]
e|-2--------------9--------7-------------------------------------------------|
B|-3--------------10-------9-------------------------------------------------|
G|-4--------------11-------x-------------------------------------------------|
D|-4--------------11-------9-------------------------------------------------|
A|-2--------------9--------7-------------------------------------------------|
E|---------------------------------------------------------------------------|

And its the same old faces, up in that club
the dj has had enough of us, the town needs new blood
and its the same old faces up in that club
divine intervention from above, the town needs new blood
the town needs new blood

And its the same old faces, up in that club
the dj has had enough of us, and he's packed up
and its the same old faces up in that club
divine intervention from above, the town needs new blood
the town needs new blood



************************************

| h  Hammer-on
| /  Slide up
| ~  Vibrato
| x  Dead note
 

************************************

            
            
Suggest correction
Creating personal tab
Creating personal tab
You can edit any tab online and save it as your Personal.

You can edit, replace or remove any tab part or add personal notes – all changes will be seen only by you.

Personal tabs can be accessed anytime from any device, even offline.
Learn more »
Give kudos to tab author, rate the tab!
1 2 3 4 5
comments
print report bad tab
guest
You may want to rate the tab now too:
select rating
Wanna post a correction for this tab? Suggest correction