Oops, an error
Loading. Please wait.

This Man tab

version 1
version 1

Whole song

Interactive

36,710 views 6 this week
12 commentsread comments
1 2 3 4 5
x 23
add to favorites
×
Save as Personal and add changes to this tab that will be seen only by you. Learn more ›
×
You can save this tab as Personal to edit and correct it or add notes. All changes will be seen only by you. Learn more »
launch autoscroll
font size
0
reset
how to read this tab
guitar tuner
edit
Autoscroll
slow
fast
+/-
esc
set tempo
stop
Author
Difficulty
Okay this song Is so awsome and I'm pretty sure it's 90% correct. Well It sounds great. 
Me, I hope you enjoy it.

Standard Tuning  (NO CAPO) This Is Acoustic all the way through

There are also a few chords that are played for most of the song also.

Em7  Cadd2  G  D  Dsus4  Am
 3     3    3  2    3     0
 3     3    3  3    3     1
 0     0    0  2    2     2
 2     2    0  0    0     2
 2     3    2  0    0     0
 0     0    3  0    0     0

This part is kinda confusing but this is basically the structure of it just listen to 
song and you'll figure it out.

Intro/Fig. 1
e|-------------------------------------------------------------------------|
b|---0--0--0--0--0--0--0--0--0--0--0--0--0--0--0--0--0--0--0--0--0--0--0---|
g|----0--0--0--0--0--0--0--0--0--0--0--0--0--0--0--0--0--0--0--0--0--0--0--|
d|-------------------------------------------------------------------------|
a|--3--5--5--2--3--3--3--5--5--2--3--3--3--5--5--7--7--7--5--5--5--5--5---5|
E|-------------------------------------------------------------------------|

Okay after the intro you play it again with for part of the first verse.

(Fig.1 is played with this part of the verse.)

In only a moment truth was seen, revealed this mystery.
The crown that showed no dignity, he wore.

(then You start with the chords)

        Cadd2    Em7     D
And the King was placed, for all the world to show disgrace.

    Cadd2        Em7              D
But only beauty flowed from this place.


(Chorus)
Em7                Cadd2          G        D-Dsus4
Would you take the place of this man.

Em7                Cadd2            G      D-Dsus4
Would you take the nails from his hands.

Em7                Cadd2          G        D-Dsus4
Would you take the place of this man.

Em7                Cadd2            G      D-Dsus4 (hold the chord)
Would you take the nails from his hands.


(Then here you play the Fig. 1 part again)
He held the weight of impurity, the father would not see.
The reasons had finally come to be, to show.

(the you start with the chords again)

    Cadd2        Em7    D
The Depth of his grace, flowed with every sin eraced.

   Cadd2       Em7        D
He knew, that this why he came.


(Chorus)

Cadd2             Am  Cadd2                 Am
And we just don't know, the blood and water flowed.
Cadd2             Am
And in it all he shows, just how much he cares.

(Then you play somthing a bit like Fig.1 but shorter.)

Fig.2
e|----------------------------------------|
b|---0--0--0--0--0--0--0--0--0--0--0--0---|
g|----0--0--0--0--0--0--0--0--0--0--0--0--|
d|----------------------------------------|
a|--3--5--5--2--3--3--3--5--5--7--7--7----|
E|----------------------------------------|

           Cadd2  Em7  D
And the veil, was torn so we could have this open door.

Cadd                 Em7               D
And all these things have finally been complete.

(Chorus)


Well thats all of that I Hope you enjoy. If you have trouble try listening to the CD. 
Bless!

            
            
Suggest correction
Creating personal tab
Creating personal tab
You can edit any tab online and save it as your Personal.

You can edit, replace or remove any tab part or add personal notes – all changes will be seen only by you.

Personal tabs can be accessed anytime from any device, even offline.
Learn more »
comments
print report bad tab
12 comments total. Showing first comments.
+2 reply
tc.sparky 10 Mar 30, 2006 04:20 AM

This version is completely accurate, kudos. If you want to play it in the same key as the recording, then use a capo on fret 1. ROCK ONN!!!

0 reply
paid4ondeath88 30 Apr 03, 2006 03:56 PM

Awesome tab man!! Good Job.

+5 reply
jvgulik 10 May 06, 2006 05:48 PM

I think every 3rd G string note needs to be dropped. That way you have a 4/4 bar consisting of all eighths an timing split up as 3/3/2 for the accents (ie the low notes which change) :

e|--------|--------|--------|--------|--------|--------|--------|--------|
b|-0--0--0|-0--0--0|-0--0--0|-0--0--0|-0--0--0|-0--0--0|-0--0--0|-0--0---|
g|--0--0--|--0--0--|--0--0--|--0--0--|--0--0--|--0--0--|--0--0--|--0--0--|
d|--------|--------|--------|--------|--------|--------|--------|--------|
a|3--5--5-|2--3--3-|3--5--5-|2--3--3-|3--5--5-|7--7--7-|5--5--5-|5--5---5|
E|--------|--------|--------|--------|--------|--------|--------|--------|

guest
You may want to rate the tab now too:
select rating
Wanna post a correction for this tab? Suggest correction